Cannibal Corpse
Unleashing the Bloodthirsty
Bloodthirst
Transcribed by Mike Kimball
mailto:[email protected]
www.geocities.com/bloodmetalcontent/
As with all guitar tablature, a mono-spaced font
(e.g. Courier or Monaco) is required to display properly...
[Notes: This song's root is B-flat, so you can
either get yourself a 7-string and tune it a half-step
down, or tune your 6-string to B-flat - I use EB Steel
Slinkys, 11-56. Only low six are shown here.]
Fig. 1
|----------------------------------------------------
|----------------------------------------------------
|----------------------------------------------------
|----------------------------------------------------
|--7-----------------------7-------------------------
|--0-----------------------0-------------------------
Fig. 2
|----------------------------------------------------
|----------------------------------------------------
|----------------------------------------------------
|--5---9---8---5---9---8---5---9---8---5---9---8-----
|--5---9---8---5---9---8---5---9---8---5---9---8-----
|--3---7---6---3---7---6---3---7---6---3---7---6-----
|----------------------------
|----------------------------
|----------------------------
|----------------------------
|--777777777777777777777777--
|----------------------------
|____||____||____||____|
Fig. 3
[both]
|------------------------------------|
|------------------------------------|
|------------------------------------|
|------------------------------------|
|------4-------10--------7-------4---|
|--0-3---6-0-9----12-0-6---9-0-3---6-|
|___| |___| |_____| |___| |___|
[gtr. 1 endings]
|-------------------||------------------------|
|-------------------||------------------------|
|-------------------||------------------------|
|----------8--------||-----------11-----------|
|------4/7---7---7--||------7/10----10----10--|
|--0-6---------9----||--0-9------------12-----|
[gtr. 2 endings]
|-------------------||------------------------|
|-------------------||------------------------|
|----------6--------||-----------9------------|
|------2/5---5---5--||------5/-8---8----8-----|
|----4---------7----||----7----------10-------|
|--0----------------||--0---------------------|
Fig. 4
|----------------------------------------------------
|----------------------------------------------------
|--------------7-----6-------------------------------
|----------------------------------------------------
|--------------5-----4-----------------------5--4----
|--0-----------------------6tr9~~~~~~~~~~~0--3--2----
|----------------------------------------------------
|----------------------------------------------------
|----------------------------------------------------
|--3-----------6-------------------------------------
|--1-----5--4--4-----------666666777777--------------
|-----0--3--2-----0--777777------------777777333333--
|----------------------------------------------------
|----------------------------------------------------
|----------------------------------------------------
|--------------9-----8-----------------5---4---5-----
|----------------------------------------------------
|--0-----------7-----6-----3tr6~~~~~~~~3---2---3-----
|----------------------------------------------------
|----------------------------------------------------
|----------------------------------------------------
|--9---8---5---8--------5----------------------------
|----------------------------------------------------
|--7---6---3---6--------3---2tr3~~~~~~~~~~~~~~~~~~~--
[ending 2nd chorus only]
|----------------------------------------------------
|----------------------------------------------------
|--------------7-----6-------------------------------
|----------------------------------------------------
|--------------5-----4-------------------------------
|--0-----------------------6tr9~~~~~~~~5tr8~~~~~~~~--
|---------------------------------------------------|
|---------------------------------------------------|
|---------------------------------------------------|
|--------------8-----5-----------------8------------|
|---------------------------------------------------|
|--4tr7~~~~~~~~6-----3-----2tr3~~~~~~~~6------------|
Fig. 5
|------------------------------------
|------------------------------------
|------------------------------------
|--5/6-----8/9-----------------------
|--3/4-----6/7-----5/4----4----4--5--
|------000-----000-3/2----2----2--3--
Fig. 6
|----------------------------
|----------------------------
|----------------------------
|-----------------------5h6--
|--7777774h54h57777774h5-----
|----------------------------
Fig. 7
|---------------------------------
|---------------------------------
|---------------------------------
|--9-----12-----------------------
|--7-----10-----11----------------
|----0-0----0-0--9-0-7776666~~~---
Fig. 8
|-------------------------------------
|-------------------------------------
|-------------------------------------
|-------------------------------------
|------4-------10--------7-------4----
|--0-3---6-0-9----12-0-6---9-0-3---6--
|_____| |_______| |_____| |_____|
Fig. 9
|--------------------------------
|--------------------------------
|---------17--17---------18--18--
|--------------------------------
|--777777/15--15--777777/16--16--
|--------------------------------
[gtr. 2]
|--------------------------------
|---------16--16---------17--17--
|--------------------------------
|---------13--13---------14--14--
|--777777/--------777777/--------
|--------------------------------
****FOR EDUCATIONAL USE ONLY!! USE THIS FOR COMMERCIAL****
****PURPOSES, AND WE WILL HUNT YOU DOWN, KILL YOU, THEN****
****TORTURE YOUR IMMORTAL SOUL FOR ALL ETERNITY!!!!!!!!****




Ваше мнение



Капча