HAMMER SMASHED FACE - Cannibal Corpse - Tomb of the Mutilated
Rhythm Guitar Transcribed on Bass
Tuning (Low - High): Eb Ab Db Gb
A Play 3 Times
|---------------------------------|
|---------------------------------|
|-2-------2-------2-------8------|
|-0-------0-------0-------6------|
pm......................
B
|------------------------------------|
|-------------------5--5--5--5--4----|
|------------------------------------|
|-0--0--1--1--2--2-------------------|
pm............................
C Play 3 Times
|---------------------------------|
|---------------------------------|
|-------------------------8------|
|-0-0-0---0-0-0---0-0-0---6------|
pm......................
Repeat B, C, & B
D Play 4 Times
|---------------------------------|
|---------------------------------|
|---------------------------------|
|-0-0-0-0-0-0-0-0-0-0-0-0-0-0-0-0-|
pm..............................
E (Bass Fill) Play 4 Times
|-------------------------|
|-------2--------3--------|
|----2-----2-----------3--|
|-0-----------1-----1-----|
F Play 4 Times
|------4-----------------|
|-2-------2--3-----------| This Riff is PROBABLY WRONG
|---------------2--0--1--|
|------------------------|
pm..
G Play 4 Times
|------------------------|
|------4-----------------|
|-2-------2--3-----------|
|---------------2--0--1--|
Repeat F
H A.H. Play 8 Times
|----------------------------|
|----------------1~----------|
|-4---/5---4-----------2----|
|-2---/3---2-----------0----|
I
|--------------------|
|-----------2--------|
|-5----4----2--------|
|-3----2----0--------|
pm........
J
|---------------------------------|-------------------------------|
|-2h5p2---1h4p1---4-4-7-----------|---------------------3---------|
|-----------------2-2-5---2-1-5---|-3h6p3---2h5p2---5-5-1-------2-|
|-----------------------------3---|-----------------3-3-----3-2-0-|
pm.. pm.. pm.. pm..
Repeat J
K A.H. Play 4 Times
|---------------------------------|
|---------------------------------|
|-2h5p2---1h4p1-----------1~------|
|-----------------2h3p2-------0---|
pm..
Repeat I & J x 2
Repeat H
Repeat A
Repeat B x 3
L
|-----------------|
|-----------------|
|-----4-------3---|
|-0-0-2---0-0-1---|
pm.. pm..
Repeat (Bx3 + L) x 3
Repeat G & F
Repeat H
Repeat I & J x 2
Repeat K
Repeat I & J x 2
Repeat H
Repeat A
M Play 8 Times
|----------------------------------|
|-------------4h5p4p5--------------|
|-2---2---2------------3---3--/6---|
|-0---0---0------------1---1--/4---|
pm.......... pm.....
N Play 2 Times
|---------------------------------|---------------------------------|
|-2-2-2-2-5-5-2-2-1-1-4-4---------|---------------------------------|
|-------------------------2-2/5---|-3-3-3-3-6-6-3-3-2-2-5-5----/1---|
|---------------------------------|-------------------------3-3-----|
pm.......................... pm..........................
O Play 4 Times
|-------------------------------------|
|-------------------------------------|
|-2-2-2-2-5-5-2-2-1-1-1-1-4-4-----0---|
|-----------------------------2-2-----|
pm.............................
Repeat N
Repeat K
Repeat H
Outro
|---------------------------------|
|---------------------------------|
|-2-------2-------2-------8--2---|
|-0-------0-------0-------6--0---|
pm......................
The End.

Erik
----------------------
[email protected]




Ваше мнение



Капча