Tabbed by:THE SANDMAN
Email:[email protected]
|-----------------------------|
|-----------------------------|
|-----------------------------| GTR I and GTR II
|-----------------------------|
|-553-2-5---222---222---222---|
|-331-0-3---000---000---000---|
Play The Following Twice
Riff A.1
|---------------------------------|
|---------------------------------|
|---------------------------------| GTR I
|---------------------------------|
|-553-2-5----222----222----222----|
|-331-0-3----000----000----000----|
| ... ... ...
|
|---------------------------------|
|---------------------------------|
|---------------------------------| GTR II
|---------------------------------|
|-553-2-5-2-2-2-2-2-2-2-2-2-2-2-2-|
|-331-0-3-0-0-0-0-0-0-0-0-0-0-0-0-|
. . . . . . . . . . . .
Play The Following Twice
Riff A.2
|----------------------------------|
|----------------------------------|
|----------------------------------| GTR I
|----------------------------------|
|-553-2-5----222----222----222-----|
|-331-0-3----000----000----000-----|
| ... ... ...
|
|----------------------------------|
|----------------------------------|
|----------------------------------| GTR II
|----------------------------------|
|-553-2-5--------------------------|
|-331-0-3-000000000000000000000000-|
........................
|---------------|
|---------------|
|---------------| GTR I and GTR II
|---------------|
|-553-2-5-------|
|-331-0-3-------|
________ _________
|1,2,3 | 4
|----------------------------------------------|-----------------|
|----------------------------------------------|-----------------|
|----------------------------------------------|-----------------| GTR I
|-------------*--------------------------------|-6tr(9)-7tr(10)--|
|-------------222222222222333333333333-553-2-5-|-----------------|
|-000000000000444444444444555555555555-331-0-3-|-----------------|
| ............
| ________ _________
| |1,2,3 | 4
|----------------------------------------------|-----------------|
|----------------------------------------------|-----------------|
|----------------------------------------------|-----------------| GTR II
|-------------*--------------------------------|-----------------|
|-------------222222222222333333333333-553-2-5-|-----------------|
|-000000000000444444444444555555555555-331-0-3-|-4tr(7)-5tr(8)---|
............

|----------------------------------------------|
|----------------------------------------------|
|----------------------------------------------| GTR I and GTR II
|----------------------------------------------|
|-553-2-5-------------6/7---6/7---7/8---7/8----|
|-331-0-3-0000000000004/50004/50005/60005/6000-|
............ ... ... ... ...

Riff A.3
|-------------------------------------------|
|-------------------------------------------|
|-------------------------------------------| GTR I and GTR II
|-------------------------------------------|
|-553-2-5-222-222-222-222-222-222-553-2-5-2-|
|-331-0-3-000-000-000-000-000-000-331-0-3-0-|
... ... ... ... ... ...
Play Four Times
|--------------------------------------------------|
|--------------------------------------------------|
|--------------------------------------------------| GTR I and GTR II
|--------------------------------------------------|
|-3/4---3/4---4/5---4/5---6/7---6/7---7/8---7/8----|
|-1/20001/20002/30002/30004/50004/50005/60005/6000-|
... ... ... ... ... ... ... ...
Play Four Times
|----------------------------------------|
|----------------------------------------|
|----------------------------------------| GTR I
|----------------------------------------|
|-4-------------3tr(6)-4------------321--|
|-2222222222222--------2222222222222-----|
| ............ ............
|
|----------------------------------------|
|----------------------------------------|
|----------------------------------------| GTR II
|----------------------------------------|
|-4-------------0tr(3)-4------------321--|
|-2222222222222--------2222222222222-----|
............ ............

|--------------------------------------------------|---------|
|--------------------------------------------------|---------|
|--------------------------------------------------|---------| GTR I and GTR
|--------------------------------------------------|---------| 2
|-3/4---3/4---4/5---4/5---6/7---6/7---7/8---7/8----|-----|
|-1/20001/20002/30002/30004/50004/50005/60005/6000-|-----|
| ... ... ... ... ... ... ... ...
|
|--------------------------------------------------|
|--------------------------------------------------|
|--------------------------------------------------|
|-444444444444555555555555777777777777888888888888-|
|--------------------------------------------------|
----------------------------------------------------
|-----------------------------------------|
|-----------------------------------------|
|-----------------------------------------| GTR I and GTR II
|-----------------------------------------|
|-553-2-5-222-222-222-222-222-222-553-2-5-|
|-331-0-3-000-000-000-000-000-000-331-0-3-|
... ... ... ... ... ...

|----------------------------------------|
|----------------------------------------|
|----------------------------------------| GTR I
|----------------------------------------|
|-4----------------------------------321-|
|-2--------------------------------------|
|
|----------------------------------------|
|----------------------------------------|
|----------------------------------------| GTR II
|----------------------------------------|
|-4-------------3tr(6)-4------------321--|
|-2222222222222--------2222222222222-----|
............ ............
|----------------------------------------|
|----------------------------------------|
|----------------------------------------| GTR I
|----------------------------------------|
|-4--------------------4-------------321-|
|-2--------------------2-----------------|
|
|----------------------------------------|
|----------------------------------------|
|----------------------------------------| GTR II
|----------------------------------------|
|-4-------------3tr(6)-4------------321--|
|-2222222222222--------2222222222222-----|
............ ............
Play four times
|-------------------------------|
|-------------------------------|
|-------------------------------| GTR I
|-------------------------------|
|--------2tr(5)-3tr(6)-553-321--|
|-000000---------------331------|
| ......
|
|-------------------------------|
|-------------------------------|
|-------------------------------| GTR II
|--------------------------210--|
|----------------------553------|
|-000000-4tr(7)-5tr(8)-331------|
......
_____________________
| 1,2,3,4
|-------------------------------------|
|-------------------------------------|
|-------------------------------------| GTR I
|--------------6tr(9)-7tr(10)---------|
|-----------------------------553-321-|
|-000000000000----------------331-----|
| ............
| _______________________ ____________________
| | 1,2 | 3,4
|--------------------------------------|--------------------------|
|--------------------------------------|--------------------------|
|--------------------------------------|--------------------------| GTR II
|----------------------------------210-|-9tr(12)-10tr(13)----210--|
|------------------------------553-----|------------------553-----|
|-000000000000-7tr(10)-8tr(11)-331-----|------------------331-----|
............
|----------------------------------|
|----------------------------------|
|----------------------------------| GTR I
|----------------------------------|
|-553-2-5----222----222----222-----|
|-331-0-3----000----000----000-----|
| ... ... ...
|
|----------------------------------|
|----------------------------------|
|----------------------------------| GTR II
|----------------------------------|
|-553-2-5-------------2-2-2-2-2-2--|
|-331-0-3-00000000000-0-0-0-0-0-0--|
........... . . . . . .
|-------------------------------|
|-------------------------------|
|-------------------------------| GTR I
|-------------------------------|
|-553-2-5--222----222----222----|
|-331-0-3--000----000----000----|
| ... ... ...
|
|-------------------------------|
|-------------------------------|
|-------------------------------| GTR II
|-------------------------------|
|-553-2-5-----222----222----222-|
|-331-0-3-----000----000----000-|




Ваше мнение



Капча