CANNIBAL CORPSE - SHE WAS ASKING FOR IT
From the Album THE BLEEDING
Copyright 1994 METAL BLADE RECORDS
Version 1.0 - January 2002
Transcribed by: Bobby Rafuse
For Questions, Comments, Newest Version, or Corrections contact
Bobby: at [email protected]
Check Out Death8699.com, With More Transcriptions On It:
http://www.death8699.com
Tablature Notation
------------------
. - palm mute / - slide up to
- slide down to ~ - vibrato
h - hammer on b - bend
p - pull off Suffixes for bend
ph - pinch harmonic f - full bend h - half bend
* - see comment r - release t - tap bend
X - percussion mute ~ - vibrato bend
@ - slight palm mute () - ghost note, sustained note
Tune Gtr to Eb (1/2 step down)
*NOTE* Listen to song for correct timings and where abouts of
each fills. Enjoy.
-- S H E W A S A S K I N G F O R I T --
Intro
|--------------------------------------|
|---023203----023203----023203---------|
|--------------------------------------| Gtr.
|--------------------------------------| 1
|-4---------4---------4---------4-2-3--|
|-2---------2---------2---------2-0-1--|
| . . |
| |
|--------------------------------------|
|--------------------------------------|
|--------------------------------------| Gtr.
|--------------------------------------| 2
|-4---------4---------4---------4-2-3--|
|-2---------2---------2---------2-0-1--|
. .
Riff 1
|--------------------------------------|
|---023203----023203----023203---------|
|--------------------------------------| Gtr.
|--------------------------------------| 1&2
|-4---------4---------4---------4-2-3--|
|-2---------2---------2---------2-0-1--|
. .
Riff 2 (under solo)
|-----------------------------------------------------|
|-----------------------------------------------------|
|-----------------------------------------------------|
|-----------------------------------------------------|
|-8-----5/7-----8-----8--8--8-----5/7-----8-----4--4--|
|-6-0-0-3/5-0-0-6-0-0-6--6--6-0-0-3/5-0-0-6-0-0-2--2--|
. . . . . . . . . . . .
Fill a
|-------------------------------------------|
|-------------------------------------------|
|-------------------------------------------| Gtr.
|-------------------------------------------| 1
|--------8---/8---/8----------8---/8--118--| only
|-7(tr8)-6-0-/6-0-/6-0-7(tr8)-6-0-/6-0-96--|
. . . . .
Fill b
|-------------------------------------------|
|-------------------------------------------|
|-------------------------------------------| Gtr.
|-------------------------------------------| 1
|--------8---/8---/8----------8---/8--118--|
|-7(tr8)-6-0-/6-0-/6-0-7(tr8)-6-0-/6-0-96--|
| . . . . . |
| |
|-------------------------------------------|
|-------------------------------------------|
|-------------------------------------------| Gtr.
|-------------------------------------------| 2
|-------------------------------------------|
|--------------------------------------x---|
Riff 3
|-----------------------|
|-----------------------|
|-----------------------|
|-----------------------|
|--------8---/8---/8----|
|-7(tr8)-6-0-/6-0-/6-0--|
. . .
Fill 2
|------------------|
|------------------|
|------------------|
|------------------|
|--------8---/8----|
|-7(tr8)-6-0-/6-0--|
. .
Riff 4a
|---------------------------|
|---------------------------|
|---------------------------|
|---------------------------|
|119--118--118-----------|
|-96-0-96-0-96-0-7(tr8)--|
. . .
Fill 3 Ending 2
|--------------------|-------------------------|
|--------------------|-------------------------|
|--------------------|-------------------------|
|--------------------|-------------------------|
|118--118---5---8--|118--118---5--8-11--8--|
|-96-0-96-0-3---6--|-96-0-96-0-3--6--9--6--|
. . . .
Riff 5
|-----------------------------------------------|
|-----------------------------------------------|
|-----------------------------------------------|
|----------------------5-----4-----3-----1------|
|--------8---/8---/8-----6-5---5-4---4-3---2-1--|
|-7(tr8)-6-0-/6-0-/6-0--------------------------|
. . . . . . . . . . . . . . .
Riff 6a Ending 2
|-----------------------------|----------------------|
|-----------------------------|----------------------|
|-----------------------------|----------------------|
|-----------------------------|----------------------|
|-/8-----/8-------------------|-/8-----/8-----5---8--|
|-/6-0-0-/6-0-0-333333666666--|-/6-0-0-/6-0-0-3---6--|
. . . . ............ . . . .
Riff 6b Ending 2
|-----------------------------|---------------------------------------|
|-----------------------------|---------------------------------------|
|-----------------------------|---------------------------------------|
|-----------------------------|------------------3--6--3--6--9-----3--|
|-/8-----/8-------------------|-/8-----/8-----5--1--4--1--4--7--5--1--|
|-/6-0-0-/6-0-0-333333666666--|-/6-0-0-/6-0-0-3-----------------3-----|
. . . . ............ . . . .
Fill 4
|-----------------------------------|
|-----------------------------------|
|-----------------------------------|
|-----------------------------------|
|-----11114444111144447777----1111--|
|-3333--------------------3333------|
................................
Riff 7a
|----------------------------------------|
|----------------------------------------|
|----------------------------------------|
|-----------------------------------ph---|
|-/8-------/8---/6--5----------------5~--|
|-/6-0-0-0-/6-0-/4--3--0-0-33332222------|
. . . . . . ........
Riff 7b
|---------------------------------------|
|---------------------------------------|
|---------------------------------------| Gtr.
|----------------------------------ph---| 1
|-/8-------/8---5--4~---------------5~--|
|-/6-0-0-0-/6-0-----------33332222------|
| . . . . ........ |
| |
|---------------------------------------|
|---------------------------------------|
|---------------------------------------| Gtr.
|---------------4--3~--------------ph---| 2
|-/8-------/8-----------------------5~--|
|-/6-0-0-0-/6-0-----------33332222------|
. . . . ........
Riff 7c
|---------------------------------------|
|---------------------------------------|
|---------------------------------------|
|---------------6--6---------------ph---|
|-/8-------/8---4--4----------------5~--|
|-/6-0-0-0-/6-0-4--4--0-0-33332222------|
. . . . . . ........
Fill 5
|-------------------------------------|
|-------------------------------------|
|-------------------------------------|
|-------------------------------------|
|-----11114444111144447777----1111-4--|
|-3333--------------------3333-----2--|
................................
end of song.




Ваше мнение



Капча