Cannibal Corpse: Pulverized
________________________
Riff 1 (Intro) |1,3
|---------------------------------------------------------------------|
|---------------------------------------------------------------------|
|------------12^0------------------------------12-12-12-13-13-13-14-14|
|-5/45-2--------11-11-11-11-10-10-10-10-9-9-9------------------------|
|-5/45-2-------------------------------------------------------------|
|-3/23-0-------------------------------------------------------------|
_____________ ___________
| |2,4
|-------------|--------------------------------------|
|-------------|--------------------------------------|
|-14-13-13-13-|-12-12-12-13-13-13-14-14-14-12-12-12--|
|-------------|--------------------------------------|
|-------------|--------------------------------------|
|-------------|--------------------------------------|
Riff 2 (Verse)
|---------------------------------------------------------------------|
|---------------------------------------------------------------------|
|---------------------------------------------------------------------|
|---------------------------------------------------------------------|
|--3^0----------------3333444455554444---3^0--------------333355554444|
|-------333322221111-------------------------333322221111-------------|
|-----------|
|-----------|
|-----------|
|-----------|
|3333-------|

Riff 3 (Pre-Chorus)
|---------------------------------------------------------------------|
|---------------------------------------------------------------------|
|---------------------------------------------------------------------|
|---------------------------------------------------------------------|
|---3^0---------------3333444455554444---3^0---------------4/54-5/65|
|-------333322221111-------------------------333322221111--2/32-3/43|
Riff 4 (Chorus)
|---------------------------------------------------------------------|
|---------------------------------------------------------------------|
|---------------------------------------12^0--------------------------|
|-------------------------------------------11-11-11-10-10-10-9-9-9---|
|--4/54-5/65-4/54-5/65-4/54-5/65--------------------------------|
|--2/32-3/43-2/32-3/43-2/32-3/43--------------------------------|
Riff 5 (Bridge)
|--------------------------------------|
|--------------------------------------|
|-----------A.H.-----------------------|
|------------3--------A.H.-------------|
|---33332222------4-5--3---------------|
|-----------------2-3------------------|
Riff 6 (post Bridge)
|--------------------------------------|
|-----------------A.H.-----------------|
|------------A.H.--2-------------------|
|-------------3---------------A.H.-----|
|----33332222------------------3-------|
|---------------------33332222---------|
___________________________ _______________________________
Riff 7 |1, 2 |3, 4
|------------------------------------------------------------------|
|------------------------------------------------------------------|
|-----------------------------------1010101099991111111110101010---|
|------------------------------------------------------------------|
|-----5555444466665555-4/54-5/65---------------------------------|
|----------------------2/32-3/43---------------------------------|

Back to riff 3 then chorus then listen to the song
how to end it isn't that difficult to figure out
tabbed by Eldis




Ваше мнение



Капча