POST MORTAL EJACULATION
BY CANIBAL CORPSE
Tabbed by: MADERA
Tune down 1/2 step
Riff 1 Riff 1a
|----------------------| |----------------------|
|----------------------| |----------------------|
|----------------------| |----------------------|
|----------------------| |----------------------|
|---------4---------4--| |---------4---------7--|
|-6-6-6-6---6-6-6-6----| |-6-6-6-6---6-6-6-6----|
PM-------] PM-----] PM-------] PM-----]
Riff 2
|----------------------------------------|
|----------------------------------------|
|----------------------------------------|
|----------------------------------------|
|---------4---------4---------4--6-\-5---|
|-6-6-6-6---6-6-6-6---6-6-6-6----4-\-3---|
PM------] PM-----] PM-----]
Riff 3
|---------------------------|
|---------------------------|
|---------------------------|
|--------------4------------|
|---------4-------6-\-5-----|
|-6-6-6-6---6-----4-\-3-----|
PM------]
Riff 4
|--------------------------------------------|
|--------------------------------------------|
|--------------------------------------------|
|-6---5-----------------6---5---3---4----5---|
|---7--------7---6--------7-------4----5---6-|
|--------0-0---8----0-0-------0--------------|
PM-] PM-] PM
Riff 5
|------------------------------------------------------------------|
|------------------------------------------------------------------|
|------------------------------------------------------------------|
|------------------------------------------------------------------|
|------------------------------------------------------------------|
|-0-0-0-0-0-0-0-0--3-3-3-3--7-7-7-7--4-4-4-4-4-4--1-1-1-1--2-2-2-2-|
Riff 6
|--------------------------------------------|
|--------------------------------------------|
|--------------------------------------------|
|--------------------------------------------|
|------------------3--------------------3--3-|
|-0-0-0-0-0-0-0-0--1---0-0-0-0-0-0-0-0--1--1-|
PM--------------] PM-------------]
Riff 7
|---------------------------------------------|
|---------------------------------------------|
|---------------------------------------------|
|---------------------------------------------|
|-----3---------------3-----------------------|
|--0-----2--1------0-----1---1/4--------------|
Riff 8 Riff 8a
|---------------------------| |---------------------------|
|---------------------------| |---------------------------|
|---------------------------| |---------------------------|
|---------------------------| |---------------------------|
|-------3-3-3---------------| |-------3-3-3---------1-1-1-|
|-0-0-0-------2-2-2--1-1-1--| |-0-0-0--------2-2-2--------|
Tremolo picking---------------------------------------------]
Fill 1
|---------------------------|
|---------------------------|
|---------------------------|
|---------------------------|
|-3--3--3-------------------|
|-1--1--1-------------------|
Riff 9
|---------------------------------------------|
|---------------------------------------------|
|---------------------------------------------|
|---------------------------------------------|
|---------2---------2---------0---------0-----|
|-4-4-4-4---4-4-4-4---2-2-2-2---2-2-2-2-------|
The song is played like this.-
Riff 1 X11
Riff 1a X4
Riff 2 X4
Riff 3 X4
Riff 4 X8
Riff 5 X8
Riff 6 X6
Riff 5 X4
Riff 7 X4
Riff 8 X1
Riff 8a X1
Fill 1 X1
Riff 8, Riff 8a X4
Riff 6 X2
Riff 9 X4
Riff 2 X4
Riff 1 X4
See you




Ваше мнение



Капча