Cannibal Corpse
Perverse Suffering
off of the album Vile
.=palm mute
*=pinch harmonic
Riff 1
A-4--3--2------------------------
E-2--1--0--0--3--2--5--3--6--2--5
. . . . . . . .
Riff 2

Riff 3
A--------------------------2-2-2-2-2-2-2-2
E--0--3--2--5--3--6--2--5--0-0-0-0-0-0-0-0
. . . . . . . . . . . . . . . .
A--------------------------5--4--3-:-8--7--6
E--0--3--2--5--3--6--2--5--3--2--1-:-6--5--4
. . . . . . . .
Riff
E--0--3--2--5--3--6--6/5--0--3--2--5--3--6--6*
, , , , , , , , , , , , ,
Riff
D---------10--9--------------
A--12--9---------12--9--12--
E---------------------------
Riff
A--2tr(5)----------2tr(5)--5--4--3--4--3--2
E----------4tr(7)----------3--2--1--2--1--0
. . . . . .
Fill
A--4--3--2
E--2--1--0
Riff
A--4--3--4--3--5--4--3--4--3--4-----2
E--2--1--2--1--3--2--1--2--1--2--3*-0
. . . . . . . . . . .

Riff
A--2--3--4--43--2--3--4--43--2--3--4--43--2--3--4----
E--0--1--2--21--0--1--2--21--0--1--2--21--0--1--2--3*
. . . . . . . . . . . .
IT'S PROBABLY FUCKED UP CORRECTIONS ARE WELCOME


Ваше мнение



Капча