Cannibal Corpse
Track: Monolith
Album: Vile
Transcribed by Chris Barnes Fisher
[email protected]

.=palm mute
^=trill
p=pull off
h=hammer-on
/=slide up
=slide down
() & (=trem pic
?=not sure inside ?

It's not complete yet.... in the intro most of it is straight speed picking.
Listen to the CD to understand the timing.

tune down Bb (7 string but transcribed for 6 strings tuned that low)

intro (riff 1)
|------------------------------------|
|------------------------------------|
|------------------------------------|
|------------------------------------|
|------3-2-0------3-2-0--------------|
|--(4)--------(4)--------------------|


riff 2
|----------------------------------------------------------------------------------|
|----------------------------------------------------------------------------------|
|----------------------------------(6)-(0)-(4)-(0)-333-(0)-444-(0)-333-(0)-111-(0)-|
|----------(3)-(0)-----------------------------------------------------------------|
|------(2)---------3333-2222-0000--------------------------------------------------|
|--(1)-----------------------------------------------------------------------------|


riff 3
|--------------------------------------------------------------|
|--------------------------------------------------------------|
|--------------------------------------------------------------|
|-2------------------------------------------------------------|
|-2------------------------------------------------------------|
|-0------------------------------------------------------------|
|
|
|--------------------------------------------------------------|
|--------------------------------------------------------------|
|--------------------------------------------------------------|
|--------------------------------------------------------------|
|--------------------------------------------------------------|
|-3--0-0-0--3--------------------------------------------------|
. . .




Ваше мнение



Капча