CANNIBAL CORPSE - HAMMER SMASHED FACE (LIVE)
From the Album LIVE CANNIBALISM
Copyright 2001 METALBLADE RECORDS
Version 1.0 - JAN '02
Transcribed by: death8699 & Bobby Rafuse
For Questions, Comments, Newest Version, or Corrections contact
death8699: at [email protected]
Bobby: at [email protected]
Check Out Death8699.com, With More Transcriptions On It:
http://www.death8699.com

. - palm mute / - slide up to
- slide down to ~ - vibrato
h - hammer on b - bend
p - pull off Suffixes for bend
ph - pinch harmonic f - full bend h - half bend
* - see comment r - release t - tap bend
X - percussion mute ~ - vibrato bend
@ - slight palm mute () - ghost note, sustained note
Tune Gtr to E-flat
--H A M M E R S M A S H E D F A C E L I V E--
Fill 1
|--------------|
|--------------|
|--------------|
|--------------|
|--------------|
|-x/------x--|
^ ^
Gtr Gtr
I II
Riff 1
|---------------------------------|---------------------------------|
|---------------------------------|---------------------------------|
|---------------------------------|---------------------------------|Gtrs
|---------------------------------|---------------------------------|I&II
|-2-------2-------2-------6--3---|-2-------2-------2-------6--3---|
|-0-------0-------0-------6--3---|-0-------0-------0-------6--3---|
| . . . . . .
|
|---------------------------------|--------------------------|
|---------------------------------|--------------------------|
|---------------------------------|--------------------------|Gtrs
|---------------------------------|--------------5-5-5-5-4~--|I&II
|-2-------2-------2-------6--3---|--------------------------|
|-0-------0-------0-------6--3---|-0-0-1-1-2-2--------------|
. . . . . . . . . . . . .
Riff 1a
|---------------------------------|---------------------------------|
|---------------------------------|---------------------------------|
|---------------------------------|---------------------------------|Gtrs
|---------------------------------|---------------------------------|I&II
|-2-2-2---2-2-2---2-2-2---6--3---|-2-2-2---2-2-2---2-2-2---6--3---|
|-0-0-0---0-0-0---0-0-0---6--3---|-0-0-0---0-0-0---0-0-0---6--3---|
| . . . . . . . . . . . . . . . . . .
|
|---------------------------------|--------------------------|
|---------------------------------|--------------------------|
|---------------------------------|--------------------------|Gtrs
|---------------------------------|--------------5-5-5-5-4---|I&II
|-2-2-2---2-2-2---2-2-2---6--3---|--------------------------|
|-0-0-0---0-0-0---0-0-0---6--3---|-0-0-1-1-2-2--------------|
. . . . . . . . . . . . . . . . . . .
Riff 1a 2tx
Fill 2
|---------------------------------|---------------------------------|
|---------------------------------|---------------------------------|
|---------------------------------|---------------------------------|Gtrs
|---------------------------------|---------------------------------|I&II
|---------------------------------|---------------------------------|
|-0-0-0-0-0-0-0-0-0-0-0-0-0-0-0-0-|-0-0-0-0-0-0-0-0-0-0-0-0-0-0-0-0-|
| . . . . . . . . . . . . . . . . . . . . . . . . . . . . . . . .
|
|---------------------------------|---------------------------------|
|---------------------------------|---------------------------------|
|---------------------------------|---------------------------------|Gtrs
|---------------------------------|-------------------------------2-|I&II
|---------------------------------|-------------------------------2-|
|-0-0-0-0-0-0-0-0-0-0-0-0-0-0-0-0-|-0-0-0-0-0-0-0-0-0-0-0-0-0-0-0-0-|
. . . . . . . . . . . . . . . . . . . . . . . . . . . . . . .
Bass
|-------------------------|-------------------------|
|-------2--------3--------|-------2--------3--------|
|----2-----2-----------3--|----2-----2-----------3--|
|-0-----------1-----1-----|-0-----------1-----1-----|
|
|-------------------------|-------------------------|
|-------2--------3--------|-------2--------3--------|
|----2-----2-----------3--|----2-----2-----------3--|
|-0-----------1-----1-----|-0-----------1-----1-----|
Riff 2
|------------------------------|------------------------------|
|------------------------------|------------------------------|
|------------------------------|------------------------------|Gtrs
|------999---------------------|------999---------------------|I&II
|--------------888-------------|--------------888-------------|
|-777------777-----777-555-666-|-777------777-----777-555-666-|

Riff 2 1tx
Riff 2a
|-----------------------------|-----------------------------|
|-----------------------------|-----------------------------|
|-----------------------------|-----------------------------|Gtrs
|-----444---------------------|-----444---------------------|I&II
|-------------333-------------|-------------333-------------|
|-222-----222-----222-000-111-|-222-----222-----222-000-111-|
Riff 2a 1tx
Riff 2 1tx
Riff 3
|----------------------------|----------------------------|
|----------------------------|----------------------------|
|----------------------------|----------------------------|Gtrs
|----------------------------|----------------------------|I&II
|-4---/5---4----1~-----2----|-4---/5---4----1~-----2----|
|-2---/3---2-----------0----|-2---/3---2-----------0----|
^ ^
a.h. a.h.
Riff 3 7tx
Fill 3
|--------------------|
|--------------------|
|--------------------|Gtrs
|-----------2--------|I&II
|-5----4----2--------|
|-3----2----0--------|
. .
Riff 4
|----------------------------------|-----------------------------------|
|----------------------------------|-----------------------------------|
|----------------------------------|-----------------------------------|Gtrs
|----------------------7-----------|-----------------------3-------2---|I&II
|-7h10p7---6h9p6---9-9-5-------5---|-------------------5-5-1---5-4-2---|
|------------------7-7-----7-6-3---|-8h11p8---7h10p7---3-3-----3-2-0---|
| . . . . . . . .
|
|----------------------------------|-----------------------------------|
|----------------------------------|-----------------------------------|
|----------------------------------|-----------------------------------|Gtrs
|----------------------7-----------|-----------------------3-----------|I&II
|-7h10p7---6h9p6---9-9-5-------5---|-8h11p8---7h10p7---5-5-1---5-4-2---|
|-7h10p7---6h9p6---7-7-----7-6-3---|-8h11p8---7h10p7---3-3-----3-2-0---|
. . . . . . . .
2 guitars - - - | 2 guitars - - - - |
Riff 4 1tx
Riff 4a
|-------------------------------------|-------------------------------------|
|-------------------------------------|-------------------------------------|
|-------------------------------------|-------------------------------------|Gtrs
|-------------------------------------|-------------------------------------|I&II
|------------------4/542---1~-------|------------------4/542---1~-------|
|-7h10p7---6h9p6---2/32--------0---|-7h10p7---6h9p6---2/32--------0---|
^ ^
a.h. a.h.
Riff 4a 3tx
Fill 3
Riff 4 2tx
Riff 3 8tx
Riff 1 1tx
Riff 1b
|--------------------------|--------------------------|--------------------------|
|--------------------------|--------------------------|--------------------------|
|--------------------------|--------------------------|--------------------------|Gtrs
|--------------5-5-5-5-4~--|--------------5-5-5-5-4~--|--------------5-5-5-5-4~--|I&II
|--------------------------|--------------------------|--------------------------|
|-0-0-1-1-2-2--------------|-0-0-1-1-2-2--------------|-0-0-1-1-2-2--------------|
|
|-----------------|
|-----------------|
|-----------------|Gtrs
|-----------------|I&II
|-----4-------3---|
|-0-0-2---0-0-1---|
. . . .
Riff 1b 3tx
Riff 2a 2tx
Riff 2 2tx
Riff 3 4tx
Fill 3
Riff 4 2tx
Riff 4a 2tx
Fill 3
Riff 4 2tx
Riff 3 4tx
Riff 1 (1st 3 bars)
Riff 5
|--------------------------------|--------------------------------|
|--------------------------------|--------------------------------|
|--------------------------------|--------------------------------|Gtrs
|--------------------------------|--------------------------------|I&II
|-2---2---2-------------3-2-6---|-2---2---2-------------3-2-6---|
|-0---0---0---2h3-2h3p2-1-0-6---|-0---0---0---2h3-2h3p2-1-0-6---|
. . . . . . . . . .
Riff 5 3tx
Riff 5a
|--------------------------------|--------------------------------|
|--------------------------------|--------------------------------|
|--------------------------------|--------------------------------|Gtr
|--------------------------------|--------------------------------| I
|-2---2---2-------------3-2-6---|-2---2---2-------------3-2-6---|
|-0---0---0---2h3-2h3p2-1-0-6---|-0---0---0---2h3-2h3p2-1-0-6---|
| . . . . . . . . . .
|
|--------------------------------|--------------------------------|
|--------------------------------|--------------------------------|
|--------------------------------|--------------------------------|Gtr
|-------------4h5-4h5p4----------|-------------4h5-4h5p4----------| II
|-2---2---2-------------3-2-6---|-2---2---2-------------3-2-6---|
|-0---0---0-------------1-0-6---|-0---0---0-------------1-0-6---|
. . . . . . . . . .
Riff 5a 5tx
Fill 4
Riff 6
|-------------------------------------|--------------------------------------|
|-------------------------------------|--------------------------------------|
|-------------------------------------|--------------------------------------|Gtrs
|-------------------------------------|--------------------------------------|I&II
|-7-7-7-7-10-10-7-7-6-6-9-9-----/12---|---------------------------------/8---|
|---------------------------7-7-/10---|-8-8-8-8-11-11-8-8-7-7-10-10-3-3-/6---|
Riff 6 1tx
Riff 6a
|----------------------------------------|----------------------------------------|
|----------------------------------------|----------------------------------------|
|----------------------------------------|----------------------------------------|Gtrs
|----------------------------------------|----------------------------------------|I&II
|-----------------------------------/7---|-----------------------------------/7---|
|-7-7-7-7-10-10-7-7-6-6-6-6-9-9-2-2-/5---|-7-7-7-7-10-10-7-7-6-6-6-6-9-9-2-2-/5---|
Riff 6a 3tx
Riff 6 2tx
Riff 4a 4tx
Riff 3 4tx
Ending
|-------------------------------------|
|-------------------------------------|
|-------------------------------------|Gtrs
|-------------------------------------|I&II
|-2-------2-------2-------6--3---2---|
|-0-------0-------0-------6--3---0---|
. . .
Check Out Death8699.com, With More Transcriptions On It:
http://www.death8699.co




Ваше мнение



Капча