Cannibal Corpse - Grint On Your Grave
Submitted By: Sqweeky
EMail: [email protected]
Album: Death comes upon us
Transcribed by: Ben Ward
Email: [email protected]

[email protected]-------------
------------------------------------------------------------------------------
------------------------------------------------------------------------------
------------------------------------------------------------------------------
-0-2-2-0-0-2-2-3--------------------------------------------------------------
-0-2-2-0-0-0-0-3--------------------------------------------------------------
Vesre is above

------------------------------------------------------------------------------
------------------------------------------------------------------------------
------------------------------------------------------------------------------
------------------------------------------------------------------------------
-2-0-2-0-2-0------------------------------------------------------------------
-0-2-0-2-0-2-7-8--------------------------------------------------------------
This is the chorus

-6/9p8----------------------------------6/9p8-6/9p8---------------------------
------8-8-8p6-6-84b-3-3-2-2-1-1-0-1/10---------------------------------------
------------------------------------------------------------------------------
------------------------------------------------------------------------------
------------------------------------------------------------------------------
------------------------------------------------------------------------------
This is the solo, keep playin the 6/9p8 until fade out.




Ваше мнение



Капча