DISFIGURED
by Cannibal Corpse
Transcribed by John M. McClanahan

This isn't the whole song but the end is kind of hard to figure out.
Tune down a half-step
palm-mute all open string notes
Riff 1 (2 times)
E -----------------------------------------------------
B -----------------------------------------------------
G -----------------------------------------------------
D -----------------------------------------------------
A ----7-----10-----7-----4-----7-----10-----11-----11--
E 0-0---0-0----0-0---0-0---0-0---0-0----0-0----0-0-----
Riff 2 (2 times)
E -----------------------------------------------
B -----------------------------------------------
G -----------------------------------------------
D 8-----5-----8-----11-----8-----5-----8-----14--
A --0-0---0-0---0-0----0-0---0-0---0-0---0-0-----
E -----------------------------------------------
Riff 1 again twice
Riff 3 (16 times)
E -------
B -------
G -------
D -------
A 4------
E --0-0--
Verse riff
E ---------------------------------------------------
B ---------------------------------------------------
G ---------------------------------------------------
D ---------------------------------------------------
A 4-----7-----4-----------4-----7-----10-----7-------
E --0-0---0-0---0-0-0-0-0---0-0---0-0----0-0----0-0--
That's all I could come up with, the rest of the song is too hard.
Cannibal Corpse Rules!




Ваше мнение



Капча