DEVOURED BY VERMIN
CANNIBAL CORPSE
TABBED BY:????

RIFF 1
-----------------------------------------------------------]
-----------------------------------------------------------]
-----------------------------------------------------------]
--------6------6------------6------6-------8/10--10-10-8-8-]
--------6------6------------6------6-------6/-8---8--8-6-6-]
-000000-4-0000-4-0000000000-4-0000-4-00000-----------------]
[pm* ] [pm*] [pm*.....] [pm*] [pm*]
----------------------------------------------------------------------------]
----------------------------------------------------------------------------]
----------------------------------------------------------------------------]
--------6------6------------6------6-------8/10--10-10-7-7--8/12--12-12-8-8-]
--------6------6------------6------6-------6/-8---8--8-5-5--6/10--10-10-6-6-]
-000000-4-0000-4-0000000000-4-0000-4-00000-
[pm*.] [pm*] [pm*.....] [pm*] [pm*]
RIFF 2 (all palm muted)
---------------------------------]
---------------------------------]
---------------------------------]
---------------------------------]
--------------------------/9-----]
-0-1-4-3--0-2-6-5--0-3-7-6----8-]
^ ^ ^ ^ ^ ^[ph] ]
RIFF 3
-----------------------------------------------------------------------------]
-----------------------------------------------------------------------------]
-----------------------------------------------------------------------------]
-----------------------------------------------------------------------------]
-----2-2-2-2-2-2-------4-4-2-2------2-2--2-2-2-2-------4-4-2-2/--x-1-x-3-x-0-]
-4-4-0-0-0-0-0-0--4-2-----------4-4-0-0--0-0-0-0--4-2------------x---x---x---]
[pm*..........] [pm] [fp...] [pm*..........] [pm] [fp....]

RIFF 4 (hard to do; listen to it and practice carefully)
---------------------------------------------------------------------------------]
---------------------------------------------------------------------------------]
---------------------------------------------------------------------------------]
----------------------------------4/6------------------------------------4/6-----]
-2)5/4--0-0--5)8/7--0-0--3)6/5--1/2/4--22)5/4--0-0--5)8/7--0-0--3)6/5--1/2/4-4-4-]
-----------------------------------------------------------------------------2-2-]
[fp.........................] [fp.........................]
---------------------------------------------------------------------------------]
---------------------------------------------------------------------------------]
---------------------------------------------------------------------------------]
----------------------------------4/6------------------------------------3/6/5/8-]
-2)5/4--0-0--5)8/7--0-0--3)6/5--1/2/4--22)5/4--0-0--5)8/7--0-0--3)6/5--1-1/4/3/6-]
---------------------------------------------------------------------------------]
[fp.........................] [fp.........................]

FILL A FILL B
-----------------------------] [-----------]
-----------------------------] [-----------]
-----------------------------] [-----------]
-----------------------------] [-2---2----2]
-2-2-2-2-2-2-2-2-2-2-2-2-2-2-] [-2---2----2]
-0-0-0-0-0-0-0-0-0-0-0-0-0-0-] [-2---2----2]
[pm.......................] [pm.....]
RIFF 5
-------------------------------------------------]
-------------------------------------------------]
-------------------------------------------------]
-----------------------------------5/8---8-8-7-7-]
-------------2--0--4-1-------------3/6---6-6-5-5-]
-0-3-1-0-4-1-----------0-0-0-0-0-0---------------]
[pm.......] [pm.......]
--------------------------------------------------------]
--------------------------------------------------------]
--------------------------------------------------------]
-----------------------------------5--------------------]
-------------2--0--4-1-------------5----------------2-4-]
-0-3-1-0-4-1-----------00000000000-3--0000000000000-----]
[pm.......] [pm*......] [pm*.......]
FILL C FILL D FILL E
---------------------------] [------------------------------] [-----------]
---------------------------] [------------------------------] [-----------]
---------------------------] [------------------------------] [-----------]
-4------------5/8--8-8-5-5-] [------------------------------] [-----------]
-4------------3/6--6-6-7-7-] [-2-2-2-2-22-2-----------------] [-x----9----]
-2--0-0-0-0-0--------------] [--------------5-5-2-2-2-2-2-2-] [-x-5/----8-]
[pm.....] [fp.......................]
SOLO 1
-11)---13--11)-----------------------------11)---13--11)-------------------------12)------------------12)-------------------11)13/x-11)13/x-]
-11)12-----11)12-12-12-12-12-12-12-12-122--11)12-----11)12-12-12-12-12-12-12-12--12)13-13-13-13-13-13-12)13-13-13-13-13-13--11)12/x-11)12/x-]
--------------------------------------------------------------------------------------------------------------------------------------------]
--------------------------------------------------------------------------------------------------------------------------------------------]
--------------------------------------------------------------------------------------------------------------------------------------------]
--------------------------------------------------------------------------------------------------------------------------------------------]
[fp.....................................................................................................................................]

---------------------------------------------------------------------------------------------------]
-13)14-13-13-14-13-13-14-13-13-14--11)122-11-11-12-11-11-12-11-11-12--9)10-9-9-10-9-9-10-9-9-10--9-]
---------------------------------------------------------------------------------------------------]
---------------------------------------------------------------------------------------------------]
---------------------------------------------------------------------------------------------------]
---------------------------------------------------------------------------------------------------]
[fp.........................................................................................]

SOLO 2
-------------------------------------------12)----------------------------------------------------------------]
-------------------------------------------12)15-15-15-15-15-15-----------------------------------------13----]
-12)15-12-14-13-12--12)15-12-14-12-13-122--12)------------------13-13-13-13-13-13--------------------------12-]
-------------------------------------------12)-------------------------------------12-12-12-12-12-12-14-------]
--------------------------------------------------------------------------------------------------------------]
--------------------------------------------------------------------------------------------------------------]
[fp..............................................................................................]
-----------------------------81--1/16-]]
-----------------------------81--1/16-]]
-----------------------------81--1/16-]]
-9)------------------9-----------------]]
-9)---------------11---10--------------]]
-9)12-9-11-9-10-9---------13-----------]]
ORDER
RIFF 1 (x2)
RIFF 2
RIFF 3
RIFF 2
RIFF 4
RIFF 1 (x2)
RIFF 2
RIFF 3
RIFF 2
RIFF 4
FILL A/ FILL B
RIFF 5 (x2)
FILL A/ FILL C
FILL A/ FILL D
RIFF 5
FILL E
SOLO 1
SOLO 2
RIFF 1 (x2)




Ваше мнение



Капча