Cannibal Corpse - Dead Human Collection
Submitted By: Sqweeky
EMail: [email protected]
Bloodthirst
Transcribed by Mike Kimball, May 2001
[[email protected]]
[geocities.com/bloodmetalcontent]
As with all guitar tablature, a mono-spaced font
(e.g. Courier or Monaco) is required to display properly...
This song is written for a 7 string guitar
Tunning: Bb Eb Ab Db Gb Bb Eb
Fig. 1
|------------------------------------------------
|------------------------------------------------
|------------------------------------------------
|------------------------------------------------
|--------------552-663-------------552-663-885---
|------------------------------------------------
|--330-330-330---------330-330-330---------------
|------------------------------------------------
|------------------------------------------------
|------------------------------------------------
|------------------------------------------------
|--------------552-663-------------663-885-996---
|------------------------------------------------
|--330-330-330---------330-330-330---------------
Fig. 2
|---------------------------------------------
|---------------------------------------------
|---------------------------------------------
|------77776666-------------------------------
|------------------66665555-------------------
|--4444------------------------8888----5555---
|--------------3333--------4444----1111-------
[end 1] [end 2]
|-----------------------|-------------------
|-----------------------|-------------------
|-----------------------|-------------------
|-----------------------|-------------------
|-----------------------|-------------------
|----------55554444-----|------88887777-----
|--330-0000--------660--|--0000--------660--
Fig. 3
|------------------------------------------------
|------------------------------------------------
|------------------------------------------------
|------------------------------------------------
|-------66665555-----------------10-9------------
|-----------------------4h7p4--------------------
|--3h6p3--------7-4-9-6------9-6------10-7-12-9--
|--------------------------------------------------
|--------------------------------------------------
|--------------------------------------------------
|--------10~~9999---------------------7-6----------
|---------------------------8h11p8-----------------
|--7h10p7--------11-8-13-10-------7-4-----8-5-10-7-
|--------------------------------------------------
|-----------------
|-----------------
|-----------------
|-----------------
|-----------------
|--------5-2-7-4--
|--6h9p6----------
Fig. 4
|--------------------------------
|--------------------------------
|--------------------------------
|--------------------------------
|--------------------------------
|--------5-2-7-4-------8-5-10-7--
|--6h9p6---------3h6p3-----------
Fig. 5
|---------------------------------------------------
|---------------------------------------------------
|---------------------------------------------------
|---------------------------------------------------
|---------------------------------------------------
|----2---------3---5-4-3-----2---------4---5-4-3-4--
|--1---0-3-2-0---0-3-2-1-0-1---0-3-2-0---0-3-2-1-2--
Fig. 6
|--------------------------------------
|--------------------------------------
|--------------------------------------
|--------------------------(66557766)--
|--65-----76-----109-----77668877---
|--43-54-54-87-*87-98------------
|------32-----65------76------------
Fig. 7
|------------------------------------
|------------------------------------
|------------------------------------
|------------------------------------
|------------------------------------
|------------------5555--------------
|--7777666688885555----444433332200--
|------------------------------------
|------------------------------------
|------------------------------------
|------------------------------------
|------------------------------------
|------------------6666--------------
|--7777666688885555----333322220000--




Ваше мнение



Капча