Cannibal Corpse
Covered with Sores
Butchered at Birth
Transcribed by Matthew ogorman
As with all guitar tablature, a mono-spaced font
(e.g. Courier or Monaco) is required to display properly...
Fig. 1
|--------------------------|--------------------------
|--------------------------|--------------------------
|--------------------------|--------------------------
|--------------------------|--------------------------
|--2-2-2-6-----4-----3-----|--2-2-2-6-----4-----3-----
|--0-0-0-6-------6-5---5-4-|--0-0-0---8-7---6-5---5-4-
Fig. 2
|--------------------|--------------------------------
|--------------------|--------------------------------
|--------------------|--------------------------------
|--------------------|--------------------------------
|------6-------------|--------------------------------
|--00006---5tr6-4tr5-|-3tr4-2tr3-4tr5-3tr4-2tr3-1tr2--
Fig. 3
|---------------|-------------------
|---------------|-------------------
|---------------|-------------------
|---------------|-------4h5p4-------
|--322522622222-|-322522-----2h3p2--
|---------------|-------------------
Fig. 4
|----------------------|--------------------
|----------------------|--------------------
|----------------------|--------------------
|----------------------|--------------------
|--------6---5tr6-4tr5-|-------6------------
|--5h6p5-4-------------|-5h6p5-4---0-0-0-0--
Fig. 5
|-------------------|-------------------
|-------------------|-------------------
|-------------------|-------------------
|-------------------|-------------------
|--4-----3----------|-------1-----------
|----6-5---5-4-5tr6-|-2-1-0---3-2-1tr2--
Fig. 6
gtr. 1
|---------------|------------------|----------
|---------------|------------------|----------
|---------------|------------------|----------
|---------------|------------------|-6---6-6--
|---------------|-------7h8p7------|-6---6-6--
|--655855955555-|-655855-----5h6p5-|-4---4-4--
gtr. 2 (octave higher)
|---------------------|------------------------|----------
|---------------------|------------------------|----------
|---------------------|----------9h10p9--------|----------
|--877-10-77-11-77777-|-877-10-77------7h8p7---|-6---6-6--
|---------------------|------------------------|-6---6-6--
|---------------------|------------------------|-4---4-4--
Fig. 7
|---------------------------|---------------------------|----------------------------|
|---------------------------|---------------------------|----------------------------|
|---------------------------|---------------------------|----------------------------|
|---------------------------|---------------------------|----------------------------|
|--2-----3-----6-----5555---|--2-----6-----3-----6666---|--2-----55------------------|
|--0-00001-00004-0000-------|--0-00004-00001-0000-------|--0-0000---00004-0000111111-|
Fig. 8
|---------------------------------------------------------------------
|---------------------------------------------------------------------
|---------------------------------------------------------------------
|---------------------------------------------------------------------
|--------6---5tr6-4tr5-------5---4tr5-3tr4-------4---3tr4-2tr3--------
|--5h6p5-4-------------4h5p4-3-------------3h4p3-2-------------2h3p2-1
Fig. 9
|--------------------|--------------------------------
|--------------------|--------------------------------
|--------------------|--------------------------------
|--------------------|--------------------------------
|------6-------------|--------------------------------
|--00006---5tr6-4tr5-|-3tr4-2tr3-4tr5-3tr4-2tr3-1tr2--
|---------------------------------------------
|---------------------------------------------
|---------------------------------------------
|---------------------------------------------
|------------------------------------------2--
|--5tr6-4tr5-3tr4-2tr3-4tr5-3tr4-2tr3-1tr2-0--
Fig. 10
|-------------------
|-------------------
|-------------------
|-------------------
|--5555--6-----3-3--
|--------4-00001-1--




Ваше мнение



Капча