BLOWTORCH SLAUGHTER - Cannibal Corpse - Bloodthirst
Version 1.0 - December 2000
Transcribed by: Lalith Vipulananthan ([email protected])
Rhythm Guitar Transcribed on Bass
Tuning (Low - High): Bb Eb Db Ab
Note: Riffs A1-A4 and G are suspect. If anyone has a better idea, then mail me!
Intro Guitar 1
|------------|------------|------------|------------|
|-8-7--4444--|-8-7--4444--|-8-7--4444--|-8-7--4444--|
|-6-5--------|-6-5--------|-6-5--------|-6-5--------|
|------------|------------|------------|------------|
| . . .... . . .... . . .... . . ....
| Guitar 2
|------------|------------|------5555--|------8888--|
|-8-7--4444--|-8-7--7777--|-8-7--------|-8-7--------|
|-6-5--------|-6-5--------|-6-5--------|-6-5--------|
|------------|------------|------------|------------|
. . .... . . .... . . .... . . ....
A1
|---------------------------------|
|-4444----------------------------|
|-----6655--------666966696669666-|
|---------55887777----------------|
A2
|--------------------------------------------|
|-4444-8-7-----------------------------------|
|------6-5----------------7--------7------7--|
|----------55887777-2-2-2-5--2-2-2-5--2-2-5--|
. . . . . . . .
A3
|-----------------------------------------|
|-4444-8-7-----------------------11111010-|
|------6-5----------6669666991212---------|
|----------55887777-----------------------|
A4
|-------------------|
|-4444-8-7----------|
|------6-5----------|
|----------55887777-|


B Play 4 times
|---------------------------|
|------------------6--5-----|
|-------7----------4--3--7--|
|-2-2-2-5--2-2-2-2-------5--|
. . . . . . .
Fill 1 Guitar 1
|-------------------------|
|-------------------------|
|-66666666----------------|
|----------0-5--0-6--0-7--|
| Guitar 2
|-------------------------|
|-------------------------|
|-------------------------|
|----------0-5--0-6--0-7--|
C Play 3 times
|-------------------------|
|-------------------------|
|-66666666----------------|
|----------0-5--0-6--0-7--|
D Play twice
|-----------------------------------------------------------------|
|-----------------------------------------------------------------|
|-----------------------------------------------------------------|
|-2h3p2p0-2h3h6p3-2h3p2p0-2h3h6p3-2h3p2p0-2h3h6p3-2h3p2p0-2h3-3-2-|
. .
Repeat C x 4, B x 4
Fill 2
|-------------|
|-------------|
|-4---5---7---|
|-2---3---5---|
E1 Play twice
|------------------------------------------|
|------------------------------------------|
|-------------1-3-444444444444444444444444-|
|-2-3-5-2-3-5------------------------------|
. . . . . . . .
F1
|-----------------|
|-----------------|
|-------------1-3-|
|-2-3-5-2-3-5-----|
. . . . . . . .
F2 (crunch riff!)
|-------------------------------------------------|
|-------------------------------------------------|
|-------------------------------------------------|
|-0-0-0-0-0-0-0-0-0-0-0-0-0-0-0-0-0-0-0-0-0-0-0-0-|
. . . . . . . . . . . . . . . . . . . . . . . .
Repeat F1, F2, E1, E1 w/E1'
E1'
|------------------------------------------|
|---------------------------------55555555-|
|-------------1-3-4444444477777777---------|
|-2-3-5-2-3-5------------------------------|
. . . . . . . .
Repeat F1, F2, F1
G Play 4 times
|---------------------------------------|
|---------------------------------------|
|-66-6-5-4-44-3-22-2--------------------|
|--------------------6-55-5-4-33-3-22-2-|
.. . . . .. . .. . . .. . . .. . .. .
H Play 4 times
|--------------------Ah--|
|--------------------3~~-|
|-4---5---7--------------|
|-2---3---5---2-22-2-----|
. .. .
Fill 3 (solos begin)
|------------|
|------------|
|-4--4---4-4-|
|-2--2---2-2-|
Repeat B x 4 (under solo 1)
I1 (under solo 2)
|------------------------------------------|
|--------------11111010--------------------|
|-6669666991212---------999129991299912999-|
|------------------------------------------|
I2 (under solo 2)
|----------------------------------------------|
|--------------11111010------------------------|
|-6669666991212---------99912999-/13--/13--/13-|
|--------------------------------/11--/11--/11-|
Repeat B x 4, C x 4
Outro
|-----------------------------------------------|
|-4----4----4----4------------------------------|
|-4----4----4----4----4--4--4--4--4--4--4--4--4-|
|-2----2----2----2----2--2--2--2--2--2--2--2--2-|
--------
The End!




Ваше мнение



Капча