=================================================================================================
Song: Beyond the Cemetery
Artist: Cannibal Corpse
Album: Tomb of the Mutilated (1992)

Tabbed by Chris Rezendes ([email protected])

Tuning: Half step down

Notation Key
v: vibrato
t: tremolo bar
^: bend
.: palm mute
~: trill
p: pull-off
h: hammer-on
x: ghost note
/: slide up
: slide down

Comments: This is a cool song. Riffs 3B and 6 especially kick ass. Anyway, I think the tab came
out great, and if you spot a mistake, please let me know about it or send me the correction. Later.
=================================================================================================

Riff 1 x16
e|---------------------------|
B|---------------------------|
G|---------------------------|
D|------------------1114321--|
A|--333333444666-000---------|
E|---------------------------|

Riff 2 x3 (My ropes and chains bruised her arms and legs...)
e|-----------------------------------------------------|
B|-----------------------------------------------------|
G|-----------------------------------------------------|
D|-----------------------------------------------------|
A|--------------111111111111---------------------------|
E|--311111400000-------------311111400000333333333333--|

Riff 2A x1
e|------------------------------------|
B|------------------------------------|
G|------------------------------------|
D|------------------------------------|
A|--------------111111111111----------|
E|--311111400000-------------3111114--|

Riff 3 x1
e|-----------------------------------------------|
B|-----------------------------------------------|
G|-----------------------------------------------|
D|-----------------------------------------------|
A|------------------------------------------6-5--|
E|--0-1-3-0-1-3-0-1-4-0-1-3-0-1-3-0-1-3-0-1-4-3--|

Riff 3B x10 (Control of the mind, feeling left behind...)
e|-----------------------------------------------|
B|-----------------------------------------------|
G|-----------------------------------------------|
D|-----------------------------------------------|
A|------------------------------------------6-5--|
E|--0-1-3-0-1-3-0-1-0-1-4-0-0-1-3-0-1-3-0-1-4-3--|

Repeat Riff 2 x2
Repeat Riff 3B x4

Riff 4 x4 (Dreams become reality, enhancing the imagination...)
e|-----------------------|
B|-----------------------|
G|-----------------------|
D|-----------------------|
A|-----------------------|
E|--1111-4444-2222-3333--|

Riff 5 x1
e|----------------------------------------------|----------------------------------------------|
B|----------------------------------------------|----------------------------------------------|
G|----------------------------------------------|----------------------------------------------|
D|-------------1---------------1----------------|-------------1---------------1----------------|
A|--222222222-3--333333333333-3--222222---------|--222222222-3--333333333333-3---------222333--|
E|--------------------------------------111222--|-------------------------------111111---------|

e|----------------------------------------------|----------------------------------------------|
B|----------------------------------------------|----------------------------------------------|
G|----------------------------------------------|----------------------------------------------|
D|-------------1---------------1----------------|-------------1---------------1--------111-----|
A|--222222222-3--333333333333-3--222222---------|--222222222-3--333333333333-3-----------------|
E|--------------------------------------111222--|-------------------------------111111-----222-|

Repeat Riff 4 x4
Repeat Riff 1 x4

Riff 6 x8
e|-------------------------------------|
B|-------------------------------------|
G|-------------------------------------|
D|--------------------------------1----|
A|--------2-1-------2-4-------2-1------|
E|--1-1-1-----1-1-1-----1-1-1-------2--|

Riff 7 x4 (Somebody wake me from this nightmare...)
e|---------------------------------------|
B|---------------------------------------|
G|---------------------------------------|
D|---------------------------------------|
A|--------1-0-------1-3-5-3---4-2---3----|
E|--0-0-0-----0-0-0---------4-----3---1--|

Repeat Riff 1 x4
Repeat Riff 5 x1
Repeat Riff 3B x8
Repeat Riff 7 x4
Repeat Riff 6 x21, start fading out the 14th time you play it


Ваше мнение



Капча