Don Schaberg interpretation
Corrected by Chris Rezendes ([email protected])
Tuning Eb
Addicted To Vaginal Skin
========================
Everything before the chorus was wrong, and everything after was extremely
accurate. I find that weird, seeing as everything that was wrong were the
easier parts to decipher, whereas the parts that were right were difficult
to play and mushy sounding.
Intro Intro A
|-----------| |----------|
|-----------| |----------|
|-----------| |-----3----|
|-2---1-----| |-2---1----|
|---3---2---| |---3---2--|
|---------3-| |---------3|
Riff 1
|-----------------|---------------------|
|-----------------|---------------------|
|-----------------|---------------------|
|-----------------|---------------------|
|-----------------|---------------------|
|-000-000-000-000-|-0306-0205-0203-0102-|
Riff 2
|-------------------------------------|
|-------------------------------------|
|-------------------------------------|
|-------------------------------------|
|-------------------------------------|
|-11112111411131111111211131110000----|
Chorus- 100orrect, if nothing else is…
|-------------------|-----------------|
|-------------------|-----------------|
|-------------------|-------------2h5-|
|-22222222----------|-----1h4-2h5-----|
|----------11111111-|-1h4-------------|
|-------------------|-----------------|
Riff 3 Riff4
|----------| |-----------------------|
|----------| |-----------------------|
|----------| |-----------------------|
|----------| |------------2-1--------|
|-222-2-2-2| |-2-------------11111111|
|-000-0-0-0| |--3-00000000-3---------|
PM... . . . PM ........ . ........
Riff 5
|------------------------|
|------------------------|
|------------------------|
|------------------------|
|-2-----------2--11111111|
|--3-00000000--3---------|
PM ........ ........
Riff 6
|---------------------------------|
|---------------------------------|
|-5^2---2-------------------------|
|-----3-----------5^2---2---------|
|---------------------3---11111111|
|--------00000000-----------------|
Put Together:
Intro, 8 times
Intro A, 4 times
Repeat 2 times: Riff 1, 4 times, Riff 2, 16 times
Bass Solo
~~~~~~~~~
Chorus, 6 times
Riff1, 2times
Riff2, 8times
Riff3, 4times
Intro, 8 times
Intro A, 8 times
Riff 4, 4 times
Chorus, 6 times
First measure of riff 1 then
Riff 3, 4 times
(Lead)
Rhythm with lead
Riff 5, 8 times
Riff 6, 4 times
Chorus, 4 times
E5 abrupt finish
I did my best, now get out there and kick some ass!!!!
(Don Schaberg)


Ваше мнение



Капча