THE SORCERERS PLEDGE
--------------------
By: Candlemass
--------------
Tabbed down by AiRBAG 22/12 1996
-------------------------------
Tablature

Version 1.0

This is somekind of mix of the original version from 1986 and the live version
with Messiah Marcolin on vocals from 1990..
It's not all of it.. its as far as i manage to do it right now.

Part one

Figure A
eb|-----------------|-----------------|-----------------|-----------------|
Bb|-----------------|-----------------|-----------------|-----------------|
Gb|---------0-------|---------0-------|---------0-------|---------0-------|
Db|-----4-------4---|-----4-------4---|-----4-------4---|-----4-------4---|
Ab|-2---------------|-2---------------|-2---------------|-2---------------|
Eb|-----------------|-----------------|-----------------|-----------------|

Figure B
eb|-----------------|-----------------|-----------------|-----------------|
Bb|-----------------|-----------------|-----------------|-----------------|
Gb|-----------------|-----------------|-----------------|-----------------|
Db|---------0-------|---------0-------|---------0-------|---------0-------|
Ab|-----4-------4---|-----4-------4---|-----4-------4---|-----4-------0---|
Eb|-2---------------|-2---------------|-2---------------|-2---------------|

Figure C
eb|-----------------|-----------------|-----------------|-----------------|
Bb|-----------------|-----------------|-----------------|-----------------|
Gb|---------0-------|-4-------0-------|---------0-------|-4-------0-------|
Db|-----4-------4---|-----4-------4---|-----4-------4---|-----4-------4---|
Ab|-2---------------|-----------------|-2---------------|-----------------|
Eb|-----------------|-----------------|-----------------|-----------------|

Figure D
eb|-----------------|-----------------|-----------------|-----------------|
Bb|-----------------|-----------------|-----------------|-----------------|
Gb|-----------------|-----------------|-----------------|-----------------|
Db|---------0-------|-4-------0-------|---------0-------|-4-------0-------|
Ab|-----4-------4---|-----4-------4---|-----4-------4---|-----4-------0---|
Eb|-2---------------|-----------------|-2---------------|-----------------|

Figure E
eb|---------5---3---|---------5---3---|---------5---3---|-----------------|
Bb|---------0---0---|---------0---0---|---------0---0---|-----------------|
Gb|-----------------|-----------------|-----------------|-----------------|
Db|-----2-----------|-----2-----------|-----2-----------|-----4-----------|
Ab|-0---------------|-0---------------|-0---------------|-2-----------4---|
Eb|-----------------|-----------------|-----------------|---------2-------|

Part Two

Riff 1
eb|-----------------|-----------------|
Bb|-----------------|-----------------|
Gb|-----------------|-----------------|
Db|-----------------|-------------5-4-|
Ab|-2---3-332-22----|-----3-332-223-2-|
Eb|-0-00--------5---|-0-00------------|
.. .. .. .. .. ..
Riff 2
eb|-----------------|-----------------|
Bb|-----------------|-----------------|
Gb|-----------------|-----------------|
Db|-----5---4-------|-----5---4---5-4-|
Ab|-2---3-332-227---|-----3-332-223-2-|
Eb|-0-00--------5---|-0-00------------|
.. .. .. .. .. ..

Riff 3
eb|-----------------|-----------------|
Bb|-----------------|-----------------|
Gb|-----------------|-----------------|
Db|-----5---4-------|-----5---4---5-7-|
Ab|-2---3-332-227---|-----3-332-223-5-|
Eb|-0-00--------5---|-0-00------------|
.. .. .. .. .. ..

Riff 4
eb|-----------------|-----------------|
Bb|-----------------|-----------------|
Gb|-----------------|-----------------|
Db|-----------------|-----------------|
Ab|-7---9---10--7---|-7---9---5---7---|
Eb|-5-557-778-885---|-5-557-773---5---|
.. .. .. .. ..

--------------------------------------------------------------------------------
Play like this:

Part I

Figure A (x2)
Figure A (x2) The Vocals Comes in
Figure B
Figure A (x2)
Figure B
Figure E
Figure A
Figure E
Figure A
Figure C (x2)
Figure D
Figure C (x2)
Figure D
Figure E
Figure C
Figure E

Part II

Riff 1 (x2)
Riff 2 (x4)
Riff 3
Riff 4 (x4)

------------------------------------------------------------------------------
Lyrics:

Part One

Time stands still in this ancient halls
Only the castle itself, can tell what it keeps
Dark are the secrets, between these walls
hidden in shadows of death, while the sorcerer sleeps

Where is the morning?
Where is the sun?
A thousand years of midnight
The sunrise is gone

An old man marked by a life so long
His sleep is so sweet while his magic, is growing so strong
Waiting still for new times to come
A thousand years to see, if he has won

Where is the morning?
Where is the sun?
A thousand years of midnight
The sunrise is gone

Part Two

What has he done?
Why is he sleeping so long?
He wants to live, for evermore!

Soon is he young
When will he open his eyes?
When he is strong enough to rule

Chorus
Back in our time goes the legend
of a sorcerer so old,
He drank the blood of the virgin, to be reborn
Soon a tyrant will conquer
so spoke the wise
of the day when the sorcerer, will rise!

Blood is his wine
the sorcerer is cheating on time
and he'll be stronger than before

Cursed be the sun,
the women will weep for his fun
in the name of his magic so strong

Part Three

A thousand years had gone,
Armageddon hasnt come
Only the cry of a child, echoes in the dark

Backwards goes time
as the stars are passing by
Nothing remains of this foolish man, except his fate

----------------------------------------------------------------------------
I know this might contain some mistakes.. Send corrections and additions to
me. E-mail me at:
[email protected]

Visit my Metal Page at:
http://www.geocities.com/SunsetStrip/alley/3950
----------------------------------------------------------------------------





Ваше мнение



Капча