Date: Tue, 26 Nov 1996 08:25:56 +0200
From: Najwa Daghestani
Subject: Tab : Samarithan By Candlemass
From: [email protected]
Subject: Tab: Candlemass--Samarithan.
Hi...I'm a beginner guitar player and this is my second tab for candlemass,
Please be free to correct any mistakes you find.
X2 x3
|------------------------| |----------|
E|----------------------------|--------------------------------------------
B|----------------------------|--------------------------------------------
G|----------------------------|--------------------------------------------
D|----------------------------|--------------------------------------------
A|-2-5-7-3-2----10-9-7-10-5---|----2-10-9-7-3-2---10-9-7-3-2---------------
E|-0-3-5-1-0-----8-7-5--8-7---|----0--8-7-5-1-0----8-7-5-1-0---------------
E|---------------|------------------
B|---------------|------------------
G|---------------|------------------
D|---------------|------------------
A|-2-10-9-7-3-2--|---10-9-7-3-2-----
E|-0--8-7-5-1-0--|----8-7-5-1-0-----
|-----------|
While Verse
(until solo)
Thats all I know for now, please e-mail me at ([email protected]) if you know
The rest or anything for Candlemass.
Thanx.
Talal Daghestani.





Ваше мнение



Капча