MIRROR, MIRROR
--------------
By: Candlemass
--------------
Tabbed down by AiRBAG. Finished 22/12 1996
--------------------------------
Tablature
Version 1.0
Intro
E|-----------------|-----------------|-----------------|-----------------|
B|-----------------|-----------------|-----------------|-----------------|
G|-----------------|-----------------|-----------------|-----------------|
D|---------9-------|--7--9--10-9-----|--------7--9--10-|--9--7--5--7--5--|
A|-2-------7-------|--5--7--8--7-----|--------5--7--8--|--7--5--3--5--3--|
E|-0---------------|-----------------|-----------------|-----------------|
E|-----------------|
B|-----------------|
G|-----------------|
D|-----4-----------|
A|--3--2-----------|
E|--5----------0-0-|
. .
Intro (Guitar 2)
E|-----------------|-----------------|-----------------|-----------------|
B|---------5-------|--3--5--6--5-----|--------3--5--6--|--5--3-----3-----|
G|-----------------|-----------------|-----------------|--------5-----5--|
D|-2---------------|-----------------|-----------------|-----------------|
A|-----------------|-----------------|-----------------|-----------------|
E|-----------------|-----------------|-----------------|-----------------|
E|-----------------|
B|--2--4-----------|
G|-----------------|
D|-----------------|
A|-----------------|
E|-----------------|
Riff 1
E|-----------------|-----------------|-----------------|-----------------|
B|-----------------|-----------------|-----------------|-----------------|
G|-----------------|-----------------|-----------------|-----------------|
D|-----------------|-----------------|-----------------|-4-------3-------|
A|-2-------4/5-----|-2-------4/5-----|-2-------4/5-2---|-2-------1-------|
E|-0---0-0-2/3-----|-0---0-0-2/3-----|-0---0-0-2/3-0---|-----------------|
. . . . . .
Riff 2
E|-----------------|-----------------|-----------------|-----------------|
B|-----------------|-----------------|-----------------|-----------------|
G|-----------------|-----------------|-----------------|-----------------|
D|-----------------|-----------------|-----------------|-----------------|
A|-----5-5-6-6-5-5-|-----5-5-6-6-5-5-|-----5-5-6-6-3-3-|-5-5-1-1-3-3-0-0-|
E|-3-3-------------|-3-3-------------|-3-3-------------|-----------------|
Chorus
E|-----------------|-----------------|-----------------|
B|-----------------|-----------------|-----------------|
G|-----------------|-----------------|-----------------|
D|-7---7-6---------|-5---5-4---------|-----------------|
A|-5---5-4-7-----7-|-3---3-2-5-----5-|-8---8-7-3---2---|
E|-----------5---5-|---------3-----3-|-6---6-5-1---0---|
E|-----------------|-----------------|-----------------|-----------------|
B|-----------------|-----------------|-----------------|-----------------|
G|-----------------|-----------------|-----------------|-----------------|
D|-----------------|-----------------|-----------------|-4-------3-------|
A|-2-------4-5-----|-2-------4-5-----|-2-------4-5-2---|-2-------1-------|
E|-0---0-0-2-3-----|-0---0-0-2-3-----|-0---0-0-2-3-0---|-----------------|
. . . . . .
E|-----------------|-----------------|-----------------|
B|-----------------|-----------------|-----------------|
G|-----------------|-----------------|-----------------|
D|-7---7-6---------|-5---5-4---------|-----------------|
A|-5---5-4-7-----7-|-3---3-2-5-----5-|-8---8-7-3---2---|
E|-----------5---5-|---------3-----3-|-6---6-5-1---0---|
Riff 3
E|-----------------|-----------------|-----------------|-----------------|
B|-----------------|-----------------|-----------------|-----------------|
G|-----------------|-----------------|-----------------|-----------------|
D|-------------7-7-|-6---------------|-5---7-8-8-------|-------------7-7-|
A|-5---5-7-8---5-5-|-4---7-8-7-------|-3---5-6-6-8-8-5-|---------2-3-5-5-|
E|-3---3-5-6-------|-----5-6-5-3-2-1-|-----------6-6-3-|-----------------|
Riff 4
E|-----------------|-----------------|-----------------|-----------------|
B|-----------------|-----------------|-----------------|-----------------|
G|-----------------|-----------------|-----------------|-----------------|
D|-----------------|-7---7-----------|-----------------|-7---7-----------|
A|-5---8-7-8-7-5-7-|-5---5-7-5-------|-5---8-7-8-7-5-7-|-5---5-7-5-------|
E|-3---6-5-6-5-3-5-|-------5-3-------|-3---6-5-6-5-3-5-|-------5-3-------|
After this comes some solo stuff which i wont even bother to tab down since
I wont be able to :)
Riff 5
E|-----------------|-----------------|-----------------|-----------------|
B|-----------------|-----------------|-----------------|-----------------|
G|-----------------|-----------------|-----------------|-----------------|
D|-------------7-7-|-6---------------|-5---7-8-8-------|-------------7-7-|
A|-5---5-7-8---5-5-|-4---7-8-7-------|-3---5-6-6-8-8-5-|---------2-3-5-5-|
E|-3---3-5-6-------|-----5-6-5-3-2-1-|-----------6-6-3-|-----------------|
E|-----------------|
B|-----------------|
G|-----------------|
D|-----------------|
A|-5---------------|
E|-3---------------|
------------------------------------------------------------------------------
Play like this:
Intro Riff (x2)
Intro Riff (x2) + Intro Riff for guitar 2
Riff 1 (x2)
Riff 1 (x2), Now the other instruments kick in
Riff 2 (x2)
Riff 1 (x4), Verse 1 starts here
Chorus
Riff 1 (x2)
Riff 2 (x2)
Riff 1 (x4), Verse 2 starts here
Chorus
Riff 2 (x2)
Riff 3
Riff 4 (several times
Riff 1 (x2), Guitar 1 alone
Riff 1 (x2), everyone
Riff 2 (x2)
Riff 1 (x4), Verse 1 reprise
Chorus
Riff 2 (x2)
Riff 3
------------------------------------------------------------------------------
Lyrics:
Verse 1
Mirror, Mirror upon the wall, Magic demon eye
Realms of madness awakened by its call
Speak the ancient words of mages, try to take control
The essence of evil challenge for your soul
Chorus
The battle of minds, the riddles, the rhymes
Beware of the darkness behind
Usurped and enslaved, Redeemed and betrayed
The devil in the mirror, obey!
Verse 2
Indescent pulsating light, glowing in it's heart
The surface is reflecting nightmares of your mind
Green mist swirling deep within, a dark dimension takes form
Grips of clawed hands drags you inside!

Enchanted with powers to conquer your soul
Good or evil, it wont mind
The mirror of darkness is blind
Verse 1
Chorus
Enchanted with powers to conquer your soul
Good or evil, it wont mind
The mirror of darkness is blind
Feel the presence, the voice of the dark
Breaks the balance, intrudes your mind
Try to deny, oh master of fools
Captured forever, the loser learns the rules

----------------------------------------------------------------------------
I know this might contain some mistakes.. Send corrections and additions to
Me. E-mail me at:
[email protected]
Visit my Metal Page at:
Http://www.geocities.com/SunsetStrip/alley/3950
----------------------------------------------------------------------------





Ваше мнение



Капча