CANDLEMASS - MIRROR MIRROR
From the Album ANCIENT DREAMS
Copyright 1988 Active Records

Version 2.0 - March 1997

Transcribed by: RICHARD BROADHEAD II()
First Transcription by: AIRBAG([email protected])
For Questions, Comments, Corrections, or Newest Version;
please contact Rich Broadhead at

Check Out My Web Page, With More Transcriptions On It:

Visit Airbag's Metal Web Site At:
http://www.geocities.com/SunsetStrip/alley/2950

Join the death/black tab mailing list by emailing

. - palm mute / - slide up to
- slide down to ~ - vibrato
h - hammer on b - bend
p - pull off Suffixes for bend
X - percussion note f - full bend h - half bend
* - see comment r - release t - tap bend
ph - pinched harmonic ~ - vibrato bend
sp - slight palm mute () - ghost note, sustained note

Tuning: Eb(every string down half a step)

Repeat twice
|-----------|--------------|------------------------------------------|
|-----------|--------------|------------------------------------------| GTR I
|-----------|--------------|------------------------------------------| &
|---------9-|-7--9--10-9---|---7--9--10-9-7--5--7--5-----4----5-------| GTR 2
|-2-------7-|-5--7--8--7---|---5--7--8--7-5--3--5--3--7--2----3---2-2-|
|-0---------|--------------|--------------------------5-----------0-0-|

|-----------|--------------|------------------------------------------|
|-----------|--------------|------------------------------------------|
|-----------|--------------|------------------------------------------| GTR I
|---------9-|-7--9--10-9---|---7--9--10-9-7--5--7--5-----4----5-------|
|-2-------7-|-5--7--8--7---|---5--7--8--7-5--3--5--3--7--2----3---2-2-|
|-0---------|--------------|--------------------------5-----------0-0-|
|
|-----------|--------------|------------------------------------------|
|-----------|--------------|------------------------------------------|
|---------4-|-2--4--5--4---|---2-4-5-4-2h4p2-0-2-0h2p0----------------| GTR 2
|-----------|--------------|---------------------------2-4---//-------|
|-----------|--------------|------------------------------------------|
|-0---------|--------------|------------------------------------------|

|-----------|--------------|--------------------------------------------|
|-----------|--------------|--------------------------------------------|
|-----------|--------------|--------------------------------------------| GTR
|---------9-|-7--9--10-9---|---7--9--10-9-7--5--7--5-----4----5---------| I
|-2-------7-|-5--7--8--7---|---5--7--8--7-5--3--5--3--7--2----3---2-3-2-|
|-0---------|--------------|--------------------------5-----------0-1-0-|
|
|-----------|--------------|--------------------------------------------|
|-----------|--------------|--------------------------------------------|
|---------4-|-2--4--5--4---|---2-4-5-4-2h4p2-0-2-0h2p0------------------| GTR
|-----------|--------------|---------------------------2-4----5---------| 2
|-----------|--------------|--------------------------------------2-3-2-|
|-0---------|--------------|--------------------------------------0-1-0-|

Riff A
|---------------|---------------|-----------------|---------------|
|---------------|---------------|-----------------|---------------|
|---------------|---------------|-----------------|--4------23----| GTR 1
|---------------|---------------|-----------------|--4------23----| &
|-2-------------|-2-------------|-2------------2--|--2------01----| GTR 2
|-0---0-0-2h3~--|-0---0-0-2h3~--|-0---0-0-2h3~-0--|---------------|
. . . . . .

Play Riff A a total of four times

Riff B
|-----------------------------------------------------------------|
|-----------------------------------------------------------------|
|-----------------------------------------------------------------| GTR 1
|-----------------------------------------------------------------| &
|-----4-4-5-5-4-4-----4-4-5-5-4-4-----4-4-5-5-2-2-4-4-0-0-2-2-----| GTR 2
|-2-2-------------2-2-------------2-2-------------------------4-4-|
. . . . . . . . . . . . . . . . . . . . . . . . . . . . . . . .

Play Riff B a total of two times
Play Riff A four times

Riff C
|-----------------|------------------|-----------------|
|-----------------|------------------|-----------------| GTR I
|-----------------|--*---------------|-5---5-4---------| &
|-9---9-8---------|--7---7-6---------|-5---5-4---------| GTR II
|-7---7-6-9----9X-|--5---5-4-7----7X-|-3---3-2-5---4---|
|---------7----7X-|----------5----5X-|---------3---2---|
*sometimes he plays an inverted fifth, though not important enough to tab down

Play Riff A
Play Riff C
Play Riff A twice
Play Riff B twice
Play Riff A 4 times
Play Riff C
Play Riff A
Play Riff C

|-----------------------------------------------------------------|
|-----------------------------------------------------------------| GTR I
|-----------------------------------------------------------------| &
|-----------------------------------------------------------------| GTR II
|-----2-2-3-3-2-2-----2-2-3-3-2-2-----2-2-3-3-0-0-2-2-------------|
|-0-0-------------0-0-------------0-0-----------------3-3-5-5-1-1-|
. . . . . . sp . . . . . . sp . . . . . . . . . . . . . . . .

Riff D
|-----------------------------------------------------------------|
|-----------------------------------------------------------------|
|-----------------------------------------------------------------| GTR I
|-----------------------------------------------------------------| &
|-----2-2-3-3-2-2-----2-2-3-3-2-2-----2-2-3-3-0-0-2-2-------------| GTR II
|-0-0-------------0-0-------------0-0-----------------3-3-5-5-1-1-|
. . . . . . . . . . . . . . . . . . . . . . . . . . . . . . . .

Riff E
|------------------------------|-----------------------|------|
|------------------------------|-----------------------|------| GTR I
|------------------------------|-----------------------|------| &
|------------7--6--------------|------------------7-9--|------| GTR II
|-5---5-7-8--------7-8-7-5-3-2-|-5---7-8--3--0-0-5-7--|-2-2--|
|------------------------------|-----------------------|-0-0--|

|-------|
|-------| GTR I and GTR 2
|-------|
|-------|
|----|
|----|

Riff F(play four times)
|-----------------------------|
|-----------------------------|
|-----------------------------| GTR I & GTR II
|-----------------5--5-54----|
|-2---5-4-5-4-2-5-3--3-32-2--|
|-0---3-2-3-2-0-3----------0--|

Riff G(played under solo)(play this four times)
|---------------|---------------|-----------------|---------------|
|---------------|---------------|-----------------|---------------|
|---------------|---------------|-----------------|-6----45-------| GTR I
|---------------|---------------|-----------------|-6----45-------|
|-4-------6/7---|-4-------6/7---|-4-------6/7-4---|-4----23-------|
|-2---2-2-4/5---|-2---2-2-4/5---|-2---2-2-4/5-2---|---------------|
. . . . . .
solo is pretty simple if ya want it email me

|-----------------------------------------|
|-----------------------------------------|
|-----------------------------------------| GTR I
|-----------------------------------------|
|-7------------------------8----8-7-7p5---|
|-5------8--7--8--7--5--7-----------------|
|
|-----------------------------------------|
|-----------------------------------------|
|-----------------------------------------| GTR II
|---------------------------7--7--7p5-----|
|--------------------------------------7--|
|-5------8--7--8--7h8p7-5-7---------------|

both guitars end at sametime
|-----------------------------------------|
|-----------------------------------------|
|-----------------------------------------| GTR I
|-----------------------------------------|
|-7------------------------8----8-7-7p5---|
|-5------8--7--8--7--5--7-----------------|
|
|------------------------------------------------|
|------------------------------------------------|
|---------------------------5-5-4h5p4-5-4----ph--| GTR II
|-----------------------------------------7-6-7~-|
|------------------------------------------------|
|-5------8--7--8--7h8p7-5-7----------------------|
. .

|-----------------------------------------|
|-----------------------------------------|
|-----------------------------------------| GTR I
|-----------------------------------------|
|-7------------------------8----8-7-7p5---|
|-5------8--7--8--7--5--7-----------------|
|
|-----------------------------------------|
|---------------------------10-10-10p8-ph-|
|-5------9--7--9-7h9p7-5-7-------------9~-| GTR II
|-----------------------------------------|
|-----------------------------------------|
|-----------------------------------------|

both guitars end at same time
|-----------------------------------------|
|-----------------------------------------|
|-----------------------------------------| GTR I
|-----------------------------------------|
|-7------------------------8----8-7-7p5---|
|-5------8--7--8--7--5--7-----------------|
|
|------------------------------------------------|
|------------------------------------------------|
|-5------9--7--9-7h9p7-5-7--5-5-4h5p4-5-4----ph--| GTR II
|-----------------------------------------7-6-7~-|
|------------------------------------------------|
|------------------------------------------------|
. .

Riff H(play four times)
|-----------------------------------------------------------------|
|-----------------------------------------------------------------| GTR I
|-----------------------------------------------------------------| &
|-----------------54-------------76-----------------------------| GTR II
|-*---------------32-2-2-2-2-2-2-54-4-4-4-4-4-4-54-------------|
|-0-0-0-0-0-0-0-0---------------------------------32-2-2-2-2-2-2-|
. . . . . . . . . . . . . . . . . . . . . . . . . .
* when repeating this note is a slight palm mute

Play Riff A twice
Play Riff B twice
Play Riff A four times
Play Riff C
Play Riff A
Play Riff C
Play Riff D twice
Play Riff E

|-------------|
|-------------|
|-------------| GTR I & GTR II
|-------------|
|-7-----------|
|-5-----------|

Check Out My 's Death Tab Page, With More Transcriptions On It:


Join the death/black tab mailing list by emailing





Ваше мнение



Капча