EPISTLE NO.81
BY CANDLEMASS
FROM ANCIENT DREAMS
Tabbed by: Talal Daghestani, [email protected]

Legend:
-------
h hammer on
p pull off
. palm mute
~ vibrato
b bend
/ slide down
slide up
eb|----------|----------------------------|--------|----------------|
Bb|----------|----------------------------|--------|----------------|
Gb|----------|----------------------------|--------|----------------|
Db|---4-6-4--|--4-----4-4-6-4-----4-9-7-4-|-4-6-7--|-7--------------|
Ab|-4-2-4-2--|--2-5-4-4-2-4-2-5-4-2-7-5-2-|-2-4-5--|-5-7-7-9--------|
Eb|-2--------|----3-2-2-------3-2---------|--------|---5-5-7--------|
eb|----------|---------------------------|--------------------------|
Bb|----------|---------------------------|--------------------------|
Gb|----------|---------------------------|--------------------------|
Db|-------4--|-4-----4-6-4-----4-9-----4-|---4-6-4-4-----4-4-6------|
Ab|-9-4-4-2--|-2-4-4-2-4-2-5-4-2-7-4-4-2-|-4-2-4-2-2-5-4-4-2-4------|
Eb|-7-2-2----|---2-2-------3-2-----2-2---|-2---------3-2-2----------|
eb|---------------|-------------------------------------------------|
Bb|---------------|-------------------------------------------------|
Gb|---------------|-------------------------------------------------|
Db|-4-----4-9-7-4-|-4-6-7-7-------------4-----4-6-4-----4-9-----4---|
Ab|-2-5-4-2-7-5-2-|-2-4-5-5-7-7-9-9-4-4-2-4-4-2-4-2-5-4-2-7-4-4-2---|
Eb|---3-2---------|---------5-5-7-7-2-2---2-2-------3-2-----2-2-----|

SOLO
eb|-----------------------------------------------------------------|
Bb|----------------------------------------16-15H16P15--------------|
Gb|-~~------------------------~~-----------------------17-16-17-----|
Db|-9---89-1112-1214-1417-16-------16---------------------------|
Ab|------------------------------14-16------------------------------|
Eb|-----------------------------------------------------------------|
. . .
eb|---------------------------------------------~~------------------|
Bb|-----------------------~~----------------8--7-------------------|
Gb|---------------7fb-7-6-7---6h7p6---------------------------------|
Db|-16-------~~----------------------9-8-9--------------------------|
Ab|----17-16-14-----------------------------------------------------|
Eb|-----------------------------------------------------------------|
eb|----------|----------------------------|--------|----------------|
Bb|----------|----------------------------|--------|----------------|
Gb|----------|----------------------------|--------|----------------|
Db|---4-6-4--|--4-----4-4-6-4-----4-9-7-4-|-4-6-7--|-7--------------|
Ab|-4-2-4-2--|--2-5-4-4-2-4-2-5-4-2-7-5-2-|-2-4-5--|-5-7-7-9--------|
Eb|-2--------|----3-2-2-------3-2---------|--------|---5-5-7--------|

eb|----------|------------------------------------------------------|
Bb|----------|------------------------------------------------------|
Gb|----------|------------------------------------------------------|
Db|-------4--|-4-----4-6-4-----4-9----------------------------------|
Ab|-9-4-4-2--|-2-4-4-2-4-2-5-4-2-7----------------------------------|
Eb|-7-2-2----|---2-2-------3-2--------------------------------------|
eb|-------------|
Bb|-------------|
Gb|-------------|
Db|-------------|
Ab|-7-5-4-2-1-2-|
Eb|-------------|
Please send corrections or any tabs for
candlemass to: [email protected]
TALAL DAGHESTANI





Ваше мнение



Капча