DARKNESS IN PARADISE
____________________

FOR CANDLEMASS
___________________

TABBED BY TALAL DAGHESTANI
__________________________
Legend:
-------
h hammer on
p pull off
. palm mute
~ vibrato
^ bend
/ slide down

tuning ( Eb,Ab,Db,Gb,Bb,Eb ) every string down half a step
Riff A
|----------------------------|--------------------------|
|----------------------------|--------------------------|
|----------------------------|--------------------------|
|-----------------5----------|-------------5------------| GUITAR 1
|-----7-5-7-5-7-8---8-7-5-7--|-7-5-7-5-7-8---8-7--------|
|-0-0------------------------|-------------------6------|
|
|-----------------3----------|-------------3------------|
|-----5-3-5-3-5-6---5h6p5-3-5|-5-3-5-3-5-6---5h6p5------|
|----------------------------|---------------------3----| GUITAR 2
|----------------------------|--------------------------|
|----------------------------|--------------------------|
|-0-0------------------------|--------------------------|
Riff A 4 times then end with an E5
Riff B
|--------------|--------------|--------------|--------------|
|--------------|--------------|--------------|--------------|
|--------------|--------------|--------------|--------------|
|--10-10-10-9--|--10-10-10-9--|--10-10-10-9--|--------------| GUITAR 1 & 2
|--8--8--8--7--|--8--8--8--7--|--8--8--8--7--|--2-2-3-------|
|--------------|--------------|--------------|--0-0-1-------|
Riff A 2 times
Riff B
Riff A 2 times
Riff C
|------------------------------------------------------------|
|------------------------------------------------------------|
|------------------------------------------------------------|
|----------------------------------7-5-4-5-4-----------------| GUITAR 1 & 2
|-------2-----3p2-3p2----------2---5-3-2-3-2-----------------|
|-0-2h3---2h3---------3--0-2h3-------------------------------|
Riff C 2 times
|------------------------------------------------------------|
|------------------------------------------------------------|
|------------------------------------------------------------|
|------------------------------------------------------------|
|------------------------------------------------------------|
|--00000000000000--12/---------------------------------------|
..............
Riff under solo
|------------------------------------------------------------|
|------------------------------------------------------------|
|------------------------------------------------------------|
|------------------------------------------------------------|
|-2-2p0---3-3p0---2-2p0---3-3p0------------------------------|
|-------2-------3-------2-------3----------------------------|
|
|------------------------------------------------------------|
|------------------------------------------------------------|
|------------------------------------------------------------|
|------------------------------------------------------------|
|-2-2p0---3-3p0---2-2p0-----2p0---2p0------------------------|
|-------2-------3-------2-------2-----2----------------------|
play the riff twice
|------------------------------------------------------------|
|------------------------------------------------------------|
|------------------------------------------------------------|
|------------------------------------------------------------|
|------------------------------------------------------------|
|--00000000000000000000000000000000000000000000000000000000--|
........................................................
|------------------------------------------------------------|
|------------------------------------------------------------|
|------------------------------------------------------------|
|------------------------------------------------------------|
|------------------------------------------------------------|
|--00000000000000000000000000000000000000000000000000000000--|
........................................................
RIff E
|------------------------------------------------------------|
|------------------------------------------------------------|
|------------------------------------------------------------|
|-9-7-5-4----------------------------------------------------| GUITAR 1 & 2
|-7-5-3-2----------------------------------------------------|
|------------------------------------------------------------|
Riff E 4 times
|------------------------------------------------------------|
|------------------------------------------------------------|
|------------------------------------------------------------|
|--------------------------3---------3-----------------------| GUITAR 1 & 2
|-------3--------3---------1---------1--3-3-3-2--------------|
|-0-0-0-1--0-0-0-1--5-5-5-----5-5-5-----1-1-1-0--------------|
. . . . . . . . . . . .
Riff B
Riff A 2 times
Riff C 4 times
Riff A until it fades out
Any corrections,solo, or comments please send to: [email protected]
Talal.





Ваше мнение



Капча