CANDLEMASS - DARK REFLECTIONS
From the Album TALES OF CREATION
Copyright 1989 - MUSIC FOR NATIONS
Version 1.0 - (JAN. 2001)
Transcribed by: REAPER
For Questions, Comments, Newest Version, or Corrections contact
(YOUR NAME): at (YOUR E-MAIL ADDRESS)
Check Out Death Warp, With More Transcriptions On It:
http://www.wam.umd.edu/~ekubica
.. - palm mute / - slide up to
- slide down to ~ - vibrato
h - hammer on b - bend
p - pull off Suffixes for bend
ph - pinch harmonic
f - full bend h - half bend
* - see comment r - release t - tap bend
X - percussion mute ~ - vibrato bend
@ - slight palm mute () - ghost note, sustained note
Tune Gtr to Eb Ѕ step down

Riff A
|-------------------------------------|
|-------------------------------------|
|-------------------------------------|Gtr
|-------------------------------------| I
|2-2-2-2--3-2--2-2-2-2-5-7-8----------|
|0-0-0-0--1-0--0-0-0-0-3-5-6----------|
Riff B
|--------------------------------------------------------------------|
|--------------------------------------------------------------------|
|---------------------------2-4-2-5-2-4-2-5--------------------------|Gtr
|-2-4-2-5-2-4-2-5--2-4-5-7-------------------8-7-6-------------------| II
|--------------------------------------------6-5-4-------------------|
|--------------------------------------------------------------------|
| |
|--------------------------------------------------------------------|
|--------------------------------------------------------------------|
|--------------------------------------------------------------------|Gtr
|--------------------------------------------8-7-6-------------------| I
|---------------------------0-2-0-3-0-2-0-3--6-5-4-------------------|
|-0-2-0-3-0-2-0-3--0-2-3-5-------------------------------------------|
Riff C
|--------------------------------------------------------------------|
|--------------------------------------------------------------------|
|--------------------------------------------------------------------|Gtr
|----5-4-----5-4-----4-3-----4-3-------------------------------------| II
|-2-------2-------1-------1------------------------------------------|
|--------------------------------------------------------------------|
| |
|--------------------------------------------------------------------|
|--------------------------------------------------------------------|
|----12-11-----12-11-----11-10-----11-10-----------------------------|Gtr
|-9---------9---------8---------8------------------------------------| I
|--------------------------------------------------------------------|
|--------------------------------------------------------------------|
Riff D
|----------------------------------|
|----------------------------------|
|----------------------------------|
|-2---5---4---8---5--4--2----------|
|-2---5---4---8---5--4--2----------|
|-0---3---2---6---3--2--0----------|
Riff E
|-----------------------------------------------|
|-----------------------------------------------|
|-----------------------------------------------|
|-----------------------------------------------|
|-2222-5555-4444-8888-5555-4444-2222------------|
|-0000-3333-2222-6666-3333-2222-0000------------|





Ваше мнение



Капча