CODEX GIGAS
BY CANDLEMASS
FROM NIGHTFALL
TABBED BY TALAL DAGHESTANI

Legend:
-------
. palm mute
~ vibrato
eb|---------------|-------------------|
Bb|---------------|-------------------|
Gb|---------------|-------------------|
Db|--2-2-5-9-8-5--|--2-2-5-9-8--3-3---| x2 GUITAR 1
Ab|---------------|-------------------|
Eb|---------------|-------------------|
eb|---------------|-------------------|
Bb|---------------|-------------------|
Gb|---------------|-------------------|
Db|---------------|-------------------| x2 GUITAR 2
Ab|--2-2----------|--2-2-----~--------|
Eb|--0-0-3-7-6-3--|--0-0-3-7-6--1-1---|

eb|---------------|-------------------|
Bb|---------------|-------------------|
Gb|---------------|-------------------|
Db|--9-8-5-3-2----|--9-8-5-3-2--------| GUITAR 1
Ab|---------------|-------------------|
Eb|---------------|-------------------|

eb|---------------|-------------------|
Bb|---------------|-------------------|
Gb|---------------|-------------------|
Db|---------------|-------------------| GUITAR 2
Ab|---------------|-------------------|
Eb|--7-6-3-1-0----|--7-6-3-1-0--------|
Now repeat all of the above with another guitar doing the following riff:

eb|--------------------------|
Bb|--------------------------|
Gb|--------------------------|
Db|--------------------------| Do this riff over and over
Ab|--2-------2-------2-------|
Eb|--0-0-0-0-0-0-0-0-0-0-0-0-|
. . . . . . . . . . . .

eb|--------------------------|
Bb|--------------------------|
Gb|--------------------------|
Db|--9-8-5-9-10-9------------| x2 GUITAR 1
Ab|--------------------------|
Eb|--------------------------|
eb|--------------------------|
Bb|--------------------------|
Gb|--4-3-0-4-5-4-------------|
Db|--------------------------| x2 GUITAR 1
Ab|--------------------------|
Eb|--------------------------|
eb|--------------------------|
Bb|--------------------------|
Gb|--------------------------|
Db|--------------------------| x4 GUITAR 2
Ab|--------------------------|
Eb|--7-6-3-7-8-7-------------|

eb|---------------|-------------------|
Bb|---------------|-------------------|
Gb|---------------|-------------------|
Db|--9-8-5-3-2----|--9-8-5-3-2--------| GUITAR 1
Ab|---------------|-------------------|
Eb|---------------|-------------------|

eb|---------------|-------------------|
Bb|---------------|-------------------|
Gb|---------------|-------------------|
Db|---------------|-------------------| GUITAR 2
Ab|---------------|----------2--------|
Eb|--7-6-3-1-0----|--7-6-3-1-0--------|

Talal Daghestani, [email protected]





Ваше мнение



Капча