Candlebox: You
Tabbed by Jon LaCour ([email protected])
Rhythm fig. 1 (Accompanied by Bass)
|--------------------|--------------------|--------------------|------------------||
|--------------------|------------2-3-2---|--------------------|------------2-----||
|--2h4--4--4--2--4---|--2-2h4-4-4---------|--2h4--4--4--2--4---|--2-2h4-4-4-4----Ђ||
|--------------------|--------------------|--------------------|-----------------Ђ||
|--------------------|--------------------|--------------------|------------------||
|--------------------|--------------------|--------------------|------------------||
Rhythm fig. 2
|--------------------|--------------------|----------------------------||
|--------------------|------------2-3-2---|-3-5-7-5-3-2-3-2-3-2---2----||
|--2h4--4--4--2--4---|--2-2h4-4-4---------|---------------------4------||
|--------------------|--------------------|----------------------------||
|--------------------|--------------------|----------------------------||
|--------------------|--------------------|----------------------------||
Rhythm fig. 3 (Heavy Dist.)
|-----------------|--------------------||
|-----------------|--------------------||
|-----------------|--5/7-7-7--5/7-7-7-Ђ||
|-3---3---5---5---|--5/7-7-7--5/7-7-7-Ђ||
|-3---3---5---5---|--3/5-5-5--3/5-5-5--||
|-1---1---3---3---|--------------------||
I have not done the solo yet, but when I tab it, I will u/l it and we will all be happy...
SEND MONEY
Jon Lacour
[email protected] (primary)
[email protected] (secondary)
[email protected] (tertiary)




Ваше мнение



Капча