Artist Name : Candlebox
Song Name : Understanding
Added By Mikhailo
Intro/Verse:
e-----------------
B-------------0---
G-----5---------5-
D---0---0---0-----
A-5-------5-------
E-----------------
e-------
B-------
G-----2-
D---4---
A-2-----
E-------
e-------------------
B-------------2-----
G-----2---------2---
D---4-------4-----4-
A-2-------2---------
E-------------------
2nd ending:
e-----------------
B---------2-2-2---
G-----2---2-2-2---
D---4-----4-4-4-4-
A-2-------------2-
E-----------------
3rd & 4th ending:
e-------------------------
B-----------------2-------
G-----2-----2-------2-----
D---4---4-------4-----4---
A-2-------2---2---------2-
E-------------------------
Chorus1: G F B Bm7 G Bb Bm7
Chorus2: G F B Bm7 G Bb B5
Bridge:
e---------------------------------------------------
B-2h3-2-----------------2h3-2-----------------------
G-------2-------2---2---------2-----2h4-----4---4---
D---------2-2h4-----------------2h4-----------------
A-----------------2---2-----------------2-2---2---2-
E---------------------------------------------------




Ваше мнение



Капча