From [email protected] Thu May 8 10:16:27 1997
Date: Fri, 18 Apr 1997 14:19:52 -0700
From: Timothy Paul Raker
To: [email protected]
Cc: [email protected]
Subject: Candlebox-No Sense-Candlebox self-titled
This is my first admission to OLGA so please tell me if I'm doing this
Right. I'm also trying to do this from memory, so please bare the
Mistakes.
CANDLEBOX
"NO SENSE"
Off of their self-titled album CANDLEBOX
This of course was written by CANDLEBOX themselves
THIS IS A VERY EASY SONG.
I WAS SURPRISED NOT TO SEE IT ALREADY, BUT I HOPE YOU'LL ENJOY IT!!!!
INTRO - CLEAN
1-----------------9----|----------------8-7--------------------
2------6------------9--|------6-------------8------------------
3--------5------9------|--------5-----------------------------
4----------7-----------|----------7---------------------------
5----7-----------------|---7----------------------------------
6--5----------9--------|-5-----------9-------------------------
PLAY THIS 3 TIMES ......... THEN PLAY THIS RIGHT BEFORE THE VOCALS START
VERSES
1----------7---7---|---------8-7----------------------------
2----------8---8---|-------------8--------------------------
3--6--6----7---7---|--6--6----------------------------------
4--7--7------------|--7--7----------------------------------
5--7--7------------|--7--7----------------------------------
6--5--5------------|--5--5----------------------------------
PLAY THIS 3 TIMES ......THEN THIS
1-----------7------------------------------------
2-----------8------------------------------------
3--6---6----7--------------------------------------
4--7---7------------------------------------------
5--7---7------------------------------------------
6--5---5------------------------------------------
END VERSE WITH THIS
CHORUS - DISTORTION
1-----------------------------------------------------------
2-----------------------------------------------------------
3----------------5------------------------------H--------------
4-------0--3--0--5-----------------------0--3--3-5--3-----------------
5--3--5----------3------------------3--5------------3---------------
6---------------------------------------------------1----------
I DON'T NEED YOU LIES THEY WON'T..
THAT'S ABOUT ALL I HAVE RIGHT NOW. TELL ME WHAT YOU THINK.




Ваше мнение



Капча