Song: Its Alright
Artist: Candlebox
Copyright: 1998, 1999 ?
Regular tuning (EADGBE)
INTRO
(REPETE A
FEW TIMES)
|-----3-----------------------------------------------------|
|--------3--------------------------------------------------|
|-----------0-------0---------------------------------------|
|--3-----------2----2--22----------0-h-2----2---------------|
|------------------------------3------------3--3333-2--0----|
|-----------------------------------------------------------|
Then you strum one of these (Im not sure) once or twice and pick the
strings
a few times and then repete it.
VERSE
|--2--| |--3--|
|--0--| |--3--|
|--0--| |--2--|
|--0--| |--3--|
|-----| |-----|
|-----| |-----|

I'm not sure about the chorus.
Then later in the disstorted part it goes like this.
|-----------------------------|
|-----------------------------| (Then you repete it a few times)
|-----------------------------|
|--10-10---9-9---8-8---0-0-0--|
|--10-10---9-9---8-8---0-0-0--|
|--10-10---9-9---8-8---0-0-0--|
Sorry I dont have it all. Any questions or comments, email me at
[email protected]
eNJOY





Ваше мнение



Капча