#----------------------------------PLEASE NOTE---------------------------------#
#This file is the author's own work and represents their interpretation of the #
#song. You may only use this file for private study, scholarship, or research. #
#------------------------------------------------------------------------------##
From: [email protected]
Date: Mon, 8 Jan 1996 02:03:50 -0500
Subject: He Calls Home tab.

HERE IT IS HE CALLS HOME BY CANDLE BOX OFF OF CANDLE BOX
BY OJ IN LAPD
THIS IS A GREAT SONG PROBUBLY ONE OF THEIR BEST
ITS REALLY SIMPLE I DON'T KNOW WHY NO ONE ELSE POSTED IT.
IF YOUR GOOD YOU CAN LEARN THIS SONG IN ABOUT THREE MINUITS ALL YOU NEED IS
AN ACOUSTIC GUITAR AND A PICK SO HAVE FUN. BUT IF YOU WANT TO BE FANCY AND
HAVE AN ACOUSTIC PICKUP WIRE IT TO YOUR AMP AND PUT THE REVERB UP HALF WAY

THIS WHOLE SONG IS BUILT OFF THE G C AND D CHORDS SO HERE IT IS JUST FOLLOW
IT THREW LIKE THE REST OF MY TABS
TECHNICAL JUNK
/=SLIDE IN
=SLIDE OUT
~=VIBRATE
p=PULL OFF
h=HAMMER ON

(INTRO)

AH NO
NO NO_____
--5---5---5--5--5-------7---7---7------7---7---
--6---6---6--6--6-------8---8---8------8---8---
--5---5---5-----5-------7---7---7------7---7---
--0---0---0------- 0---- 0-------------------- 0-
--0----------------0--------------------------0-
------------------------------------------------
NO COME HOME
WELL I SEE
--5---5---5--5--5-------7---7----8p7---7-----7-------
--6---6---6--6--6-------8---8------------8-----------
--5---5---5-----5-------7---7--------------7---------
--0---0---0------- 0---- 0-------0-----0---------0----
--0----------------0-----------------------------0----
------------------------------------------------------
(VERSE)
HIM EVERY DAY IN THAT BLANKET THAT HE CALLS HOME I
WONDER
--5---5---5--5--5-------7---7---7------7---7----
--6---6---6--6--6-------8---8---8------8---8----
--5---5---5-----5-------7---7---7------7---7----
--0---0---0------- 0---- 0----------------------0-
--0----------------0--------------------------- 0-
--------------------------------------------------
DOES HE KNOW THAT HIS FAMILY THEY'RE LEFT ALONE
HE SAYS
--5----------5--5-------7---7----8p7---7-----7-------
--6----------6--6-------8---8------------8-----------
--5----------5--5-------7---7--------------7---------
--0----------0-----0----0-------0-----0---------0----
--0----------------0---------------------------- 0----
------------------------------------------------------
BROTHER CAN YOU SPARE A DIME SEE I'M DOWN TO MY LAST DOLLAR AND THIS
--5------------------5--5-----------------------7---7-
--6------------------6--6-----------------------8---8-
--5------------------5--5-----------------------7---7-
--0------------------0------0-------------------------0
--0-------------------------0-------------------------0
-------------------------------------------------------
LIFE OF MINE SAID THIS LIFE OF MINE IT GETS ROUGH AT TIMES AND
I WONDER
--5--------------5--5---7----7---7---7--7--7--7--7--7-
--6--------------6--6---8----8---8---8--8--8--8--8--8-
--5--------------5--5---7----7---7---7--7--7--7--7--7-
--0--------------0-----0------------------------------0
--0--------------------0------------------------------0
-------------------------------------------------------
DOES HE EVEN KNOW DOES HE EVEN CARE THAT
HIS FAMILY
--------------------------------------------------------
--------------------------------------------------------
---------------------------0------0---------------0----
----------3-p-0--0----0---------------0-------3------3-
-3-h-5-----------0------------3-----------1------------
--------------------------------------------------------
IS SAFE AT HOME AND THEY WONDER WHERE AS
HE WANDERS
--------------------------------------------------------
-----------------------3--------------------------------
---------------------------0------0---------------0----
----------3-p-0--0-------------------0-------3-------3-
-3-h-5-----------0------------3-----------1------------
--------------------------------------------------------
THROUGH HIS LIFE EVER SEARCHING FOR A
WARM BLANKET
--------------------------------------------------------
-----------------------3--------------------------------
---------------------------0------0---------------0----
----------3-p-0--0-------------------0-------3-------3-
-3-h-5-----------0------------3-----------1------------
--------------------------------------------------------
ON WARM FEILDS AND HE WANDERS ON AND I
WONDER
--------------------------------------------------------
-----------------------3--------------------------------
---------------------------0------0---------------0----
----------3-p-0--0-------------------0-------3-------3-
-3-h-5-----------0------------3-----------1------------
--------------------------------------------------------
IS HE SAFE FROM THE COLD I SAID
--------------------------------0---0-0---0-0---5--5-5-
------0------3----3----3----2--2/3-3-3/5-5-5---6--6-6-
--------0------0----0-------0--0---0-0--- 0-0-0-5--5 5-
----2------2-----2----2--------2/3-3-3/5-5-5-0-0--0--0
-0------------------------0--------------------------- 0
--------------------------------------------------------
SAFE OUT FROM THE COLD MMM
WELL I SEE
-7----7--7-5-------5--5-------7--7----8p7---7-----7---
-8----8--8-6-------6--6-------8--8------------8-------
-7----7--7-5-------5--5-------7--7--------------7-----
-0----0--0---------0-------0--0------0-----0---------0
-0----0--0-----------------0------------------------- 0
--------------------------------------------------------

WELL SEE HE LEFT THE OTHER DAY TOOK HIS BLANKET THAT HE CALLED HOME
--5---5---5--5--5-------7---7---7------7---7----
--6---6---6--6--6-------8---8---8------8---8----
--5---5---5-----5-------7---7---7------7---7----
--0---0---0------- 0---- 0----------------------0-
--0----------------0--------------------------- 0-
I WONDER DID HE GO FOR GOOD OR DID HE PASS AWAYEAY
--5----------5--5-------7---7----8p7---7-----7-------
--6----------6--6-------8---8------------8-----------
--5----------5--5-------7---7--------------7---------
--0----------0-----0----0-------0-----0---------0----
--0----------------0---------------------------- 0----
------------------------------------------------------
WELL I WONDER DOES HE KNOW THAT I'M DOWN TO MY LAST DOLLAR AND THIS
--5------------------5--5-----------------------7---7-
--6------------------6--6-----------------------8---8-
--5------------------5--5-----------------------7---7-
--0------------------0------0-------------------------0
--0-------------------------0-------------------------0
-------------------------------------------------------
LIFE OF MINE SAID THIS LIFE OF MINE IT GETS ROUGH AT TIMES AND
I WONDER
--5--------------5--5---7----7---7---7--7--7--7--7--7-
--6--------------6--6---8----8---8---8--8--8--8--8--8-
--5--------------5--5---7----7---7---7--7--7--7--7--7-
--0--------------0-----0------------------------------0
--0--------------------0------------------------------0
-------------------------------------------------------
DOES HE EVEN KNOW DOES HE EVEN CARE THAT
MY FAMILY
--------------------------------------------------------
--------------------------------------------------------
---------------------------0------0---------------0----
----------3-p-0--0----0---------------0-------3------3-
-3-h-5-----------0------------3-----------1------------
--------------------------------------------------------
IS SAFE AT HOME AND I WONDER WHERE AS I
WANDERS
--------------------------------------------------------
-----------------------3--------------------------------
---------------------------0------0---------------0----
----------3-p-0--0-------------------0-------3-------3-
-3-h-5-----------0------------3-----------1------------
--------------------------------------------------------
THROUGH MY LIFE EVER SEARCHING FOR MY
WARM BLANKET
--------------------------------------------------------
-----------------------3--------------------------------
---------------------------0------0---------------0----
----------3-p-0--0-------------------0-------3-------3-
-3-h-5-----------0------------3-----------1------------
--------------------------------------------------------
ON WARM FEILDS AND HE WANDERS ON AND I
WONDER
--------------------------------------------------------
-----------------------3--------------------------------
---------------------------0------0---------------0----
----------3-p-0--0-------------------0-------3-------3-
-3-h-5-----------0------------3-----------1------------
--------------------------------------------------------
WILL I ALWAYS BE HELPED ALONG I
SAID
--------------------------------0---0-0---0-0---5--5-5-
------0------3----3----3----2--2/3-3-3/5-5-5---6--6-6-
--------0------0----0-------0--0---0-0--- 0-0-0-5--5 5-
----2------2-----2----2--------2/3-3-3/5-5-5-0-0--0--0
-0------------------------0--------------------------- 0
--------------------------------------------------------
I____________________> I'LL NEVER KNOW OH OH BECAUSE
2--2-2-2-2-2-2----- 0-0-------------------------------
3--3-3-3-3-3-3-3---1-1-1-1-1---1--1-1-1-0-0-0-0-----
2--2-2-2-2-2-2-0-0-0-0-0-0-0---0--0-0-0-0-0-0-0-0-0-
0------0--- 0---0-3-3-3-3---2-2-2--2-2-2-0-0-0-0-0-0-
------------------3---3----- 3---3--3-3-3---5---5-3-3-0
-------------------------------------------- 5---5-3-3-0
I____________________> I'LL NEVER GO NO NO AND
YES
2--2-2-2-2-2-2----- 0-0-------------------------------
3--3-3-3-3-3-3-3---1-1-1-1-1---1--1-1-1-0-0-0-0-----
2--2-2-2-2-2-2-0-0-0-0-0-0-0---0--0-0-0-0-0-0-0-0-0-
0------0--- 0---0-3-3-3-3---2-2-2--2-2-2-0-0-0-0-0-0-
------------------3---3----- 3---3--3-3-3---5---5-3-3-0
-------------------------------------------- 5---5-3-3-0
I____________________> I SAID I WONDER WHY YEAH YEAH BECAUSE
2--2-2-2-2-2-2----- 0-0-------------------------------
3--3-3-3-3-3-3-3---1-1-1-1-1---1--1-1-1-0-0-0-0-----
2--2-2-2-2-2-2-0-0-0-0-0-0-0---0--0-0-0-0-0-0-0-0-0-
0------0--- 0---0-3-3-3-3---2-2-2--2-2-2-0-0-0-0-0-0-
------------------3---3----- 3---3--3-3-3---5---5-3-3-0
-------------------------------------------- 5---5-3-3-0
I_____ YEAH OH NO I WIL NEVER COME HOME I'LL NEVER
COME
2--2-2-2-2-2-2----- 0-0-------------------------------
3--3-3-3-3-3-3-3---1-1-1-1-1---1--1-1-1-0-0-0-0-----
2--2-2-2-2-2-2-0-0-0-0-0-0-0---0--0-0-0-0-0-0-0-0-0-
0------0--- 0---0-3-3-3-3---2-2-2--2-2-2-0-0-0-0-0-0-
------------------3---3----- 3---3--3-3-3---5---5-3-3-0
-------------------------------------------- 5---5-3-3-0
HOME NEVER COME HOME AND WONT YOU
LET ME COME
-2--2-2-2-0----------------2--2-2-2-------------------
-3--3-3-3-3---3---3-3-3-- -3--3-3-3-3---3---3-3-3----
-2--2-2-2-0---0---0-0-0-0- 2--2-2-2-0---0---0-0-0-0--
-0------ 0-0-------3---3-0- 0------0- 3-------3---3-0-
-------------------------0----------- 3----------------
-------------------------------------------------------
HOME DOESN'T WANNA COME HOME HOME
-2--2-2-2-0----------------2--2-2-2-------------------
-3--3-3-3-3---3---3-3-3-- -3--3-3-3-0---3-------------
-2--2-2-2-0---0---0-0-0-0- 2--2-2-2-0---5-------------
-0------ 0-0-------3---3-0- 0------0- 0---3-------------
-------------------------0----------- 0---3-------------
------------------------------------------3-------------
OH SAID BUT I GOT IT
---------------------------------
-3---3---3-----------------------
-5---5---5---5---5---5/7--7-----
-5---5---3---3---3---3/5--5---0-
-3---3-------3---3---3/5--5---0-
-3---3--------------- 3/5--5---0-
I____________________> I'LL NEVER KNOW OH OH YES
2--2-2-2-2-2-2----- 0-0-------------------------------
3--3-3-3-3-3-3-3---1-1-1-1-1---1--1-1-1-0-0-0-0-----
2--2-2-2-2-2-2-0-0-0-0-0-0-0---0--0-0-0-0-0-0-0-0-0-
0------0--- 0---0-3-3-3-3---2-2-2--2-2-2-0-0-0-0-0-0-
------------------3---3----- 3---3--3-3-3---5---5-3-3-0
-------------------------------------------- 5---5-3-3-0
I____________________> I'LL NEVER GO NO NO AND
YES
2--2-2-2-2-2-2----- 0-0-------------------------------
3--3-3-3-3-3-3-3---1-1-1-1-1---1--1-1-1-0-0-0-0-----
2--2-2-2-2-2-2-0-0-0-0-0-0-0---0--0-0-0-0-0-0-0-0-0-
0------0--- 0---0-3-3-3-3---2-2-2--2-2-2-0-0-0-0-0-0-
------------------3---3----- 3---3--3-3-3---5---5-3-3-0
-------------------------------------------- 5---5-3-3-0
I____________________> I SAID I WONDER WHY YEAH YEAH BECAUSE
2--2-2-2-2-2-2----- 0-0-------------------------------
3--3-3-3-3-3-3-3---1-1-1-1-1---1--1-1-1-0-0-0-0-----
2--2-2-2-2-2-2-0-0-0-0-0-0-0---0--0-0-0-0-0-0-0-0-0-
0------0--- 0---0-3-3-3-3---2-2-2--2-2-2-0-0-0-0-0-0-
------------------3---3----- 3---3--3-3-3---5---5-3-3-0
-------------------------------------------- 5---5-3-3-0
I_____ YEAH OH NO I WIL NEVER COME HOME I'LL NEVER
COME
2--2-2-2-2-2-2----- 0-0-------------------------------
3--3-3-3-3-3-3-3---1-1-1-1-1---1--1-1-1-0-0-0-0-----
2--2-2-2-2-2-2-0-0-0-0-0-0-0---0--0-0-0-0-0-0-0-0-0-
0------0--- 0---0-3-3-3-3---2-2-2--2-2-2-0-0-0-0-0-0-
------------------3---3----- 3---3--3-3-3---5---5-3-3-0
-------------------------------------------- 5---5-3-3-0
HOME NEVER COME HOME
--------------------------------
-3---------3-3-3-3-0-----------
-0---------0-0-0-0-0-----------
-2---------2-2-2-2-0-----------
-3-----------3---3----3/5--5-0-
---------------------- 3/5--5-0-
AND I WANNA COME HOME
-2-2-2-2-2---2-2-2------------------------------------
-3-3-3-3-3---3-3-3-3-0--3---------3-3-1--------------
-2-2-2-2-2---2-2-2-2-0--0---------0-0-0-------- 0----
-0--- 0-- 0----- 0---0-0--2---------2---2-------- 0----
----- 0-------------------3----------------3/5~~-0----
-------------------------------------------3/5~~-0---
WONT YOU LET ME COME HOME CAUSE I WANNA COME HOME
-2-2-2-2---------------------2--2-2-2------------------
-3-3-3-3-0---3---------------3--3-3-3-0---------------
-2-2-2-2-0---5---------------2--2-2-2-0-3---------3-0-
-0--- 0-- 0---3---------3--0--0------0-0-1---------3-0-
----- 0-------3---------3--0-----------0-1---------1-0-
------------- 3---------3--0------------- 1-------------
LET ME COME HOME MA MA MM MM__________________
-2-2-2-2---------------------2--2-2-2------------------
-3-3-3-3-0---3---------------3--3-3-3-0---------------
-2-2-2-2-0---5---------------2--2-2-2-0-3-------------
-0--- 0-- 0---3---------5--0--0------0-0-1-------------
----- 0-------3---------3--0-----------0-1-------------
------------- 3---------3--0------------- 1-------------

WOW THE FIRST CANDLE BOX SONG THAT DON'T HAVE A SOLO
NOT THAT THATS GOOD
HOPE YOU GUYS LIKE IT
KEEP YOUR REQUESTS COMING
E-MAIL ME WITH ANY CORRECTIONS ,COMMENTS OR REQUESTS
AT OJ IN LAPD OR OJ IN [email protected]
P.S. PETER KLET IS A GUITAR GENIUS and ANY BODY GOT TABS TO DROWNED ANY
HAGFISH TABS OR ANY TABS FROM THE OFFSPRINGS RE RELEASE OF THEIR FIRST ALBUM
SEND THEM MY WAY




Ваше мнение



Капча