Artist Name : Candlebox
Song Name : Happy Pills
Added By Mikhailo
Intro:
e-------------------------------------------------
B-------------------------------------------------
G-------------------------------------------------
D-------------------------------------------------
A-4/6-6-6-6-6-4/7-7-7-7-7-4/6-6-6-6-6-4/7-7-7-7-7-
D-4/6-6-6-6-6-4/7-7-7-7-7-4/6-6-6-6-6-4/7-7-7-7-7-
e---------------------------------------------------
B---------------------------------------------------
G---------------------------------------------------
D---------------------------------------------------
A-4/6-6-6-6-6-4/7-7-7-7-7-4/6-6-6-6-6-4/7-x-x-x-x-x-
D-4/6-6-6-6-6-4/7-7-7-7-7-4/6-6-6-6-6-4/7-x-x-x-x-x-
e--------------------
B-3--5--3--5--7--9---
G-5b-7b-5b-7b-9b-11b-
D--------------------
A--------------------
D--------------------
Verse:
e-------------------------------------
B-------------------------------------
G-------------------------------------
D-4/6-6-x-4/6-6-x-4/6-6-x-4/7-7-7-7-7-
A-4/6-6-x-4/6-6-x-4/6-6-x-4/7-7-7-7-7-
D-------------------------------------
Chorus:
e-------------------------------------
B-------------------------------------
G-4-------------2---------------------
D-4-----------2---2---2-2-4-4-5-5-7-7-
A-2-2-0-2h4-0-------0-2-2-4-4-5-5-7-7-
D---------------------2-2-4-4-5-5-7-7-




Ваше мнение



Капча