#----------------------------------PLEASE NOTE---------------------------------#
#This file is the author's own work and represents their interpretation of the #
#song. You may only use this file for private study, scholarship, or research. #
#------------------------------------------------------------------------------##
From: [email protected] (Mommy #3 @5405)
Subject: TAB: Don't You by Candlebox
Date: Fri, 28 Jul 95 03:02:58 GMT

Candlebox - Don't You
This is a very fine flat-out rockin' song. The rhythm is pretty accurate,
and IMPORTANT!: IGNORE WHAT THE TAB NOTATION SAYS, THE BOTTOM STRING IS
TUNED DOWN TO 'D'!!!
(I forgot to set it in my TAB program and I'm too lazy to go back and
change 'em all:)
But, if you have questions, comments, criticisms...
E-mail MOMMY
[email protected]

Intro:
E-|---------------------------------|-----------------------------------------|
B-|---------------------------------|-----------------------------------------|
G-|---------------------------------|-----------------------------------------|
D-|-10-12-12-10-12------------------|-10-12-12-10-12--------------------------|
A-|-10-12-12-10-12------------------|-10-12-12-10-12--------------------------|
E-|-10-12-12-10-12------------------|-10-12-12-10-12--------------------------|


E-|---------------------------------|-----------------------------------------|
B-|---------------------------------|-----------------------------------------|
G-|---------------------------------|-----------------------------------------|
D-|-10-12-12-10-12------------------|-----------------------------------------|
A-|-10-12-12-10-12------------------|-3-5-5-3-5-5-3-5-5-3-5-5-3-5-3-0---------|
E-|-10-12-12-10-12------------------|-----------------------------------------|


E-|---------------------------------|-----------------------------------------|
B-|-------------------------3---3-3-|-------------------------3---3-3---------|
G-|-------------------------2---2-2-|-------------------------2---2-2---------|
D-|---------------3---3-3h5-0---0-0-|---------------3---3-3h5-0---0-0---------|
A-|-3-5-5-3-5-3-0-3---3-3h5-0-------|-3-5-5-3-5-3-0-3---3-3h5-0---------------|
E-|---------------3---3-----0-------|---------------3---3-----0---------------|


E-|---------------------------------|-----------------------------------------|
B-|-------------------------3---3-3-|-----------------------------------------|
G-|-------------------------2---2-2-|-----------------------------------------|
D-|---------------3---3-3h5-0---0-0-|----------------3---5-3------------------|
A-|-3-5-5-3-5-3-0-3---3-3h5-0-------|-3-5--3-5---3-5---5-----5----------------|
E-|---------------3---3-----0-------|-----------------------------------------|

Verses:
E-|---------------------------------|----|------------------------------------|
B-|---------------------------------|----|------------------------------------|
G-|---------------------------------|----|------------------------------------|
D-|---------------3-3-3-------------|-x3-|------------------3---5-3-----------|
A-|-3-5-5-3-5-5-5-------5-5-3-5-5-5-|----|-3-5-5-3-5----3-5---5-----5---------|
E-|---------------------------------|----|------------------------------------|
^^^^^^^^^^^^^^PM^^^^^^^^^^^^^^^

E-|---------------------------------|---------------------------|--------|----|
B-|---------------------------------|-------------------6-----6-|--------|----|
G-|-repeat-four-bars-then-play------|-------------------5-----5-|---x3---|----|
D-|---------------------------------|-----3p0-----------4-----4-|--------|----|
A-|---------------------------------|-3h5-----3p0-------5-----5-|--------|----|
E-|---------------------------------|-------------3p0-0-----0---|--------|----|

1st Ending:
E-|-------------------------------|-------------------------------------------|
B-|-------------------------------|-------------------------------------------|
G-|-------------------------------|-------------------------------------------|
D-|-----3p0-------------3p0-5p3p0-|-then-repeat-verse-------------------------|
A-|-3h5-----3p0-----3h5-----------|-------------------------------------------|
E-|-------------3p0---------------|-------------------------------------------|

2nd Ending (to end):
E-|-------------------------------|-------------------------------------------|
B-|-------------------------------|------6----------6--------6----------------|
G-|-------------------------------|-------------------------------------------|
D-|-----3p0-------------3p0-5p3p0-|------3--5-------3--5-----3----------------|
A-|-3h5-----3p0-----3h5-----------|-3h5-------3h5-5------3h5---5--------------|
E-|-------------3p0---------------|-------------------------------------------|


E-|---------------------|-----------------------------|-----------------------|
B-|------6--------------|------6---------6--------6---|------6----------------|
G-|-----------5---------|-----------------------------|-----------5-----------|
D-|------3----5----3--5-|------3--5------3--5-----3---|------3----5------5p3--|
A-|-3h5-----5-3----3--5-|-3h5-------3h5-------3h5---5-|-3h5-----5-3-3-5p3---53|
E-|----------------3--5-|-----------------------------|-----------------------|

Repeat last section, then come to this kick-ass solo:
E-|---------------------------------------------|----|------------------------|
B-|------------------------20-20-20-20s19-19-19-|----|------------------------|
G-|----19-19-19s17-17-17------------------------|----|-19s17---17-------------|
D-|------------------------17-17-17-17s16-16-16-|-x3-|-------0----------------|
A-|----17-17-17s15-15-15------------------------|----|-17s15-0-15-------------|
E-|-0--------------------0----------------------|----|------------------------|


E-|------------------|-----------------------------|--------------------------|
B-|--------10--------|-20-20-20-20-20-19-19----20b-|-20b------20b-------------|
G-|-19s----10--------|-----------------------------|--------------------------|
D-|------x-------x-x-|-17-17-17-17-17-16-16-17-----|--------------------------|
A-|-17s--x-------x-x-|-----------------------------|--------------------------|
E-|-0----------------|-----------------------------|--------------------------|

Double time:
E-|----------------|-10------------------------|----|-------------------------|
B-|---10---10--10--|-10--12hb-r-10-12-12p10----|----|-10----------10-10-------|
G-|---10---10--10--|-----12b--r-10-12-12p10----|----|-10-12b-r-10-12-12p10----|
D-|-x--------------|------------------------12-|-x3-|----------------------12-|
A-|-x--------------|---------------------------|----|----------------------12-|
E-|----------------|---------------------------|----|-------------------------|


E-|--------------------------|-10-------13p10----10---------------------------|
B-|--------10-13-----10-13-b-|----13p10-------13----13p10---------------------|
G-|-10-12b-------10b---------|-----------------------------12hb-r-10----------|
D-|--------------------------|------------------------------------------------|
A-|--------------------------|------------------------------------------------|
E-|--------------------------|------------------------------------------------|


E-|---------------------------|-----------------------------------------------|
B-|---------------------------|----10-------------10--------------------------|
G-|-12-12p10----10-12hb-12p10-|----10-------------10--------------------------|
D-|----------12---------------|-12----12-11p10----10--------------------------|
A-|---------------------------|----------------12----12-----------------------|
E-|---------------------------|-----------------------------------------------|


E-|----------------------------|----------------------------------------------|
B-|-------------------------10-|--------12-12-12-12p10-------10---------------|
G-|-------------------------10-|--------12-12-12-12p10-------10---------------|
D-|-10-12-12-12-12-12p10-11----|-12--12----------------12-12------------------|
A-|----------------------------|----------------------------------------------|
E-|----------------------------|----------------------------------------------|


E-|-----------------------|-----------10-10-10-10-|-------10----13b-----------|
B-|-12hb-r-10-12-12-10----|-----------10-10-10-10-|-13b------10---------------|
G-|-12b--r-10-12-12-10----|-10--------------------|---------------------------|
D-|--------------------12-|-----------------------|---------------------------|
A-|-----------------------|-----------------------|---------------------------|
E-|-----------------------|-----------------------|---------------------------|


E-|-13b-r-10----10-------10-|---------10-10-------------|---------------------|
B-|----------13----13b------|-13p10---10-10-------------|---------10-12-12hb-r|
G-|-------------------------|------10h12-10-12-12p10----|-12p10---10-12-12b--r|
D-|-------------------------|------------------------12-|-------12------------|
A-|-------------------------|---------------------------|---------------------|
E-|-------------------------|---------------------------|---------------------|


E-|--------|-----|-----10--10-10---|-10---------------------------------------|
B-|-10-----|-----|-----------------|------------------------------------------|
G-|-10-----|-----|-----------------|-------5--5-5---6-------------------------|
D-|--------|-----|-----------------|-------5--5-5---6-------------------------|
A-|--------|-----|-----------------|-------3--3-3---4-------------------------|
E-|--------|-----|-----------------|------------------------------------------|

Bridge riff:
E-|---------------|---------------|------------|-------------|----------------|
B-|---------------|---------------|------------|-------------|----------------|
G-|-7----7----7-7-|--7----7-7-7-7-|-7s5---5----|---5-5-5--5--|-7-7---7---7-7-7|
D-|-7--x-7----7-7-|--7----7-7-7-7-|-7s5---5----|---5-5-5--5--|-7-7-x-7---7-7-7|
A-|-5--x-5--5-5-5-|--5--5-5-5-5-5-|-5s3-3-3----|---3-3-3--3--|-5-5-x-5-x-5-5-5|
E-|----x----------|---------------|------------|-------------|-----x----------|


E-|------------------|--------------|--------------|--------------------------|
B-|-------------10---|--------------|--------------|--------------------------|
G-|---7-7---7-7-7----|-----------5--|--------------|--------------------------|
D-|---7-7---7-7-7----|-3--3-3--5-5--|---5--5-5-5-5-|-then-repeat-riff---------|
A-|---5-5-0-5-5-5--0-|-3--3-3--5-3--|---3--3-3-3-3-|--------------------------|
E-|-0----------------|-3--3-3--5----|--------------|--------------------------|

Outro chorus:
E-|-----------------------|---------------------|----------------|------------|
B-|-----------------------|---------------------|----------------|------------|
G-|----------10--10-------|----10--10-------10--|----------------|------------|
D-|----------10--10-------|----10--10-------10--|-12s10-10-10----|------------|
A-|-12-12-12--------12-12-|-12--------12-12-----|-12s10-10-10----|-hold-------|
E-|-12-12-12--------12-12-|-12--------12-12-----|-12s10-10-10----|------------|


E-|-----------------------|---------------------|--------------|--------------|
B-|-----------------------|---------------------|--------------|--------------|
G-|----------10--10-------|----10--10-------10--|-----------5--|----5-5-5-5---|
D-|----------10--10-------|----10--10-------10--|-3--3-3--5-5--|----5-5-5-5---|
A-|-12-12-12--------12-12-|-12--------12-12-----|-3--3-3--5-3--|----3-3-3-3---|
E-|-12-12-12--------12-12-|-12--------12-12-----|-3--3-3--5----|--------------|

End:
E-|---------------------|-----------------|--------------|--------------------|
B-|---------------------|-----------------|--------------|--------------------|
G-|-repeat-outro-chorus-|-----------------|--------------|--------------------|
D-|---------------------|-----3p0---------|----3p0-5p3p0-|--------------------|
A-|---------------------|-3h5-----3p0-----|3h5-----------|--------------------|
E-|---------------------|-------------3p0-|--------------|--------------------|

---------------------------------------------------------------------
This TAB was made exclusively for Life After Death BBS (504)-885-3327
---------------------------------------------------------------------




Ваше мнение



Капча