Artist Name : Candlebox
Song Name : Belmore Place
Added By Mikhailo
Intro/Verse:
e-3-3-3-3-3p2-2-2-2----------------------
B-3-3-3-3-3---3-3-3--1-1-1-1-1-1-1-1-1-1-
G-0-0-0-0-2---2-2-2--0-0-0-0-0-0-0-0-0-0-
D-0-0-0-0-0---0-0-0--3-3-3-2-2-2-2-2-2-2-
A-2-2-2-2------------3-3-3-3-3-3-3-3-3-3-
E-3-3-3-3--------------------------------
Pre-Chorus:
e-----------------
B-----------------
G-7-7-7-7-5-7-7-8-
D-7-7-7-7-5-7-7-8-
A-5-5-5-5-3-5-5-6-
E-----------------
Chorus:
e-------------------------------------------
B-------------------------------------------
G-9-9-9-9-8-8/6-6-6-6-6/7-7-7-7-2-2-2-2-2-2-
D-9-9-9-9-8-8/6-6-6-6-6/7-7-7-7-2-2-2-2-2-2-
A-7-7-7-7-6-6/4-4-4-4-4/5-5-5-5-0-0-0-0-0-0-




Ваше мнение



Капча