Artist Name : Candlebox
Song Name : Become (To Tell)
Added By Mikhailo

Intro:
e---------0---------------0---------------0---------
B-----------0---------------0---------------0-------
G-------------2---------------2---------------6-4-2-
D-----3---------3-----3---------3-----7---------5-3-
A---3---3-----------3---3-----------7---7-------5-3-
E-1---------------1---------------5-------------3-1-

e---0---------------0---------0-----
B-----0---------------0---0---------
G-------2---------------6-------4-2-
D---------3-----7-----------7---5-3-
A-------------7---7-------------5-3-
E-1---------5-------------------3-1-

Verse:
e---------------0-----0-----------------0-----------
B-----------------0-----0-----------------0---0---0-
G-2---2-----6-------6-----6-2---2---6-------6---6---
D-3---3-------7-------------3---3---7---------------
A-3---3---7-----------------3---3---7-7-------------
E-1---1---------------------1---1---5---------------

e--0---------0--------------0-----------0-----------
B----0---------0--------------0---0---0---0---------
G--------2--2----2-------6------6---6-------6-----2-
D-7----5-3--3------3-------7------------------7-7-3-
A------5-3--3----------7------------------------7-3-
E------3-1--1--------5--------------------------5-1-

e---0---------------0-------0-------0-------
B-----0---------------0-------0-------0-----
G-------2---------------6-------6-------6---
D---------3-----7---------7-------7-------7-
A-------------7---7-------------------------
E-1---------5-------------------------------
Chorus1: C5 A C5 A
Chorus2: C5 A C5 A D5 A




Ваше мнение



Капча