BTAB : Walk on by
ARTIST: CAKE
ALBUM : Prolonging the magic
AUTHOR: Charlie ([email protected])
DATE : 04/28/99

Here are the main riffs, figure out when to play them by listening to the song,
it's pretty easy.
G-------7------5------7-----5--
D--0-0----7-7----0-0----7-7----
A------------------------------
E------------------------------
G---------------------------
D------7-----5-----7-----5--
A--0-0---7-7---0-0---7-7----
E---------------------------
G-----------------------------
D------4-----2-----4-----2----
A--------4-4---------4-4------
E--3-3---------3-3------------
There you go...
Taken from Charlie's Bass Tabs http://members.tripod.com/~ccaldi




Ваше мнение



Капча