#----------------------------------PLEASE NOTE---------------------------------#
#This file is the author's own work and represents their interpretation of the #
#song. You may only use this file for private study, scholarship, or research. #
#------------------------------------------------------------------------------#
Song:Up so close
Band:Cake
Album:Motorcade of Generosity
tabbed by:Thomas Lai ([email protected])
([email protected])
I think this base line by Victor Daminai is the best one in
all of Cake's songs.Another fine example of how bass line can
provide both rhythm and melody to a song.

verse:
G:-------------------------2-h4-2---------2-------------2/7-h9-7-
D:---------2-------------2------------3-------3-----3------------
A:-----3-------3-----3------------5-------------5----------------
E:-5-------------5-----------------------------------------------
G:---------------------------------------------------------------
D:-----------------------------------2---5---2---5-2-------5-6-7-
A:-----2---5---2-----5---2-------3-------------3-------3---------
E:-3-------------3-----------5-3---------------------------------
G:---------------------2-h4-2---------2-------------2/7-h9-7-----
D:-----5-------------2------------3-------3-----3----------------
A:-7-------7-----3------------5-------------5-------------------2
E:-----------5-----------------------------------------------3---
G:---------------------------------------4-----------------------
D:-----------------------------2---5---2---5-2---------2---------
A:---5---2-----5---2-------3---------------------3-5---------3---
E:---------3-----------5-3-------------------------------5-------
G:-----------------2-h4-2---------2-------------2/7-h9-7--------7
D:-2-------------2------------3-------3-----3------------9-------
A:-----3-----3------------5-------------5------------------10----
E:-------5-------------------------------------------------------
G:-7------------------------4------------------------------------
D:---9------------2---5---2---5-2---------2---------2------------
A:-------10---3---------------------3-5---------3-------3-----3--
E:------------------------------------------5-------------5------
G:--2-h4-2---------2-------------2/7-h9-7-------------------------
D:2------------3-------3-----3------------------------------------
A:---------5-------------5--------------------2---5---2-----5---2-
E:----------------------------------------3-------------3---------
G:-------------------3-------------------------------------------
D:---------2---5---2---5---2-------2-----------------------------
A:-----3-----------------------3-5-------------------------------
E:-5-3-------------------------------1---------------------------
chorus:
G:---------------------------------------------------------------
D:---------------------------------------------------------------
A:-----------------------2-3--------2-3-5---7-8-7-/3-2---5-4-3---
E:-1-2-3------3-4-5----------3-----------------------------------
G:---------------------------------------------------------------
D:---------------------------------------------------------------
A:----------3------------3---------------------------------------
E:-1-1----------1-1----------1-1---1-1---------------------------
Repeat verse till the end of the song, then fade out.




Ваше мнение



Капча