Artist: Cake
Song: Short Skirt, Long Jacket
Transcripted By: Chris McAleenan
-----------------------------------------------------------------
Intro:
Bass Tab
G:----------------------------------------------|
D:----------------------------------------------|
A:--5-----3h5--3h5-----------3h5--3p0-----------|
E:-------------------------------------1--3--5--|
------------------------------------------------------------------
Verses:
D A G A D
e:--------------------------------|
B:--------------------------------|
G:----7-x-x--------------------7--|
D:----7-x-x---7----5-5-----7---7--|Repeat Throughout Verse
A:----5-x-x---7----5-5-----7---5--|
E:------------5----3-3-----5------|
-------------------------------------------------------------------
Send comment to me at- [email protected]
[email protected]--




Ваше мнение



Капча