Cake-Short Skirt Long Jacket
tabbed by lupus182
[email protected]

MainRiff
-------------------------------
-------------------------------
------------------------------- play x times
-------------------------------
-5--3-5-3-5----3-5-3-0-------0-
-----------------------1--3----

Pre PreChorus
-------------------------------
-------------------------------
-------------------------------
------------------------------- play once
-5--3--3--------0--0-----------
----------1--3-----------------

PreChorus
----------------------------
----------------------------
-5--7-7---------------------
-5--7-7--3--5-5------------- play x times
-3--5-5--3--5-5-------------
---------1--3-3-------------

Chorus
--------------------------------------------------------
--------------------------------------------------------
------------------------------------------------------5-
------------------------------------------------------5- play once
-3--0-0-0----3--0-0-0----3--0-0-5-0-0-7-0-0-5-0-0-5p0-3-
--------------------------------------------------------
(sometimes he plays this part twice)




Ваше мнение



Капча