T1: Ryan, [email protected], Cake, Sheep Go to Heaven, 6/10/98
S1: Thanks...., Song: Sheep Go to Heaven
Artist: Cake
Album: Prolonging the Magic
INTRO (just keep your fingers on the A5 chord as you strum them muted)
Riff One
A5
E|-------------------------------------------------------------------
B|-------------------------------------------------------------------
G|-------------------------------------------------------------------
D|--7--X---X--X--X--X--X---7--7--7---X--X---X--X----7--7--7---X---X--
A|--7--X---X--X--X--X--X---7--7--7---X--X---X--X----7--7--7---X---X--
E|--5--X---X--X--X--X--X---5--5--5---X--X---X--X----5--5--5---X---X--
D5 A5
E|--------------------------------|
B|--------------------------------|
G|-----------7--7-----------------| (x 3)
D|-X--X--X---7--7--7--7--7--7--7--|
A|-X--X--X---5--5--7--7--7--7--7--|
E|-X--X--X---------5--5--5--5--5--|
Riff Two (hold on to the first note for a good four seconds)
E|--------------------------------------|
B|---10---------------7--5--7-----------|
G|-------------------------------5p4p2--| (x 2)
D|--------------------------------------|
A|--------------------------------------|
E|--------------------------------------|
VERSE ONE (features riff one from intro)
I'm not feeling alright today
I'm not feeling that great
I'm not catching on fire today
Love has started to fade
I'm not going to smile today
I'm not gonna laugh
You're out living it up today
I've got dues to pay
BRIDGE ONE
Riff Three (played during the first two lines of the bridge)
E|-----------------------------------|
B|-----------------------------------|
G|-----------------------------------| (x 2)
D|-----------------------------------|
A|------4-4-5-5-7--5-4---4-4-5-5-7-7-|
E|--5-5----------------5-------------|
Riff Four (played during the last line of the bridge)
E|--6--4--2-------------------|
B|------------5--4--2---------|
G|----------------------4-2b--|
D|----------------------------|
A|----------------------------|
E|----------------------------|
And the gravedigger puts on the forceps
The stonemason does all the work
The barber can give you a haircut
The carpenter can take you out to lunch
BRIDGE TWO (same as bridge one)
Now I just want to play on my panpipes
I just want to drink me some wine
As soon as you're born you start dyin'
So you might as well have a good time
CHORUS (the chord is just one downstroke)
D Em
Sheep go to heaven Goats go to hell
D Em
Sheep go to heaven Goats...go to hell
(Riff 2 from intro x 2)
VERSE TWO (played with Riff one from intro)
I don't wanna go to Sunset Strip
I don't wanna feel the emptiness
Old marquees with stupid band names
I don't wanna go to Sunset Strip
I don't wanna go to Sunset Strip
I don't wanna feel the emptiness
Old marquees with stupid band names
I don't wanna go to Sunset Strip
SOLO
Riff five (repeated throughout intro)
E|---------------------------------------------------------------------------|
B|---------------------------------------------------------------------------|
G|---------------------------------------------------------------------------|
D|---------------------------------------------------------------------------|
A|-12-10-------------------12-10-------------------12-10---------------------|
E|---------12-10-9-5-9-5---------12-10-9-5-9-5---------12-10-9-5-9-5-9-5-9-5-|
Riff Six (repeat just what is after the middle barline)
E|--------------------------------|--------------------------------------------
B|--------------------------------|--------------------------------------------
G|--------------------------------|--------------------------------------------
D|--------------------------------|--------------2-2-2-2-2-2-----2-2-2-2-2-2---
A|-0------------------------------|-----0--------------------------------------
E|----------3b-------2b-------1b--|---------------------------3--------------2-
E|--------------------------------|
B|--------------------------------|
G|--------------------------------| ( x 3)
D|--2-2-2-2-2-2-------------------|
A|--------------------------------|
E|------------------1----0--1--2--|
BRIDGE (same as bridge one)
And the gravedigger puts on the forceps
The stonemason does all the work
The barber can give you a haircut
The carpenter can take you out to lunch
(same as bridge two)
Now but I just want to play on my panpipes
I just want to drink me some wine
As soon as you're born you start dyin'
So you might as well have a good time
CHORUS
CHORDS
E a d g b e
D 0 0 0 2 3 2
Em 0 2 2 0 0 0




Ваше мнение



Капча