Cake
“Pretty Pink Ribbon”
Off Comfort Eagle (July 2001)
Tabbed by- Greg Timpanaro
Posted-12-31-01
E-mail- [email protected]

Verse/Riff
This part is played throughout the song with a Flanger pedal.
Here are the chords just listed, you figure out the rhythm.
B5 G#5 E5 F#5
E--------------------------------------------------
B--------------------------------------------------
G--------------------------------------------------
D-4----------2---------------------------------------
A-2-----6----2----4---------------------------------------
E-------4----0----2--------------------------------------
Solo Guitar at 1:04 and towards the end too ( figure out the timing) Played over the riff
E-----------------------------------------------------------
B-----------------------------------------------------------
G---8--------------8----------------------------------------
D-9---9-----9----9---9------6---6----6----------------------
A---------9---9--------9/6----6---6-----/9---9--------------
E------------------------------------------9---9--9-9-9/----
Ring out the first B note (a * by it)
E-----------------------------------------------------------
B-----------------------------------------------------------
G------------------6-4----8-6-4-----------------------------
D--------------4-----------------8-6-4--6-4-----------------
A-2*---2-4-6-7---6--------------------------/7--------------
E----------------------------------------------7------------

0:34
With out the tight little denim.... (chords listed)
D#5 G#5 C#5 F#5
E--------------------------------------------------
B--------------------------------------------------
G-8------------6-----------------------------------
D-8-----6------6-----------------------------------
A-6-----6------4-------4---------------------------
E-------4--------------2---------------------------
Chorus
Your Muscles.....
B5 F#5 B5ii G#5 E5 F#5( one hit for the F#5)
E-----------------------------------------------
B-----------------------------------------------
G-4---------------------------------------------
D-4---------------6----2------------------------
A-2-----4----9----6----2----4-------------------
E-------2----7----4----0----2-------------------




Ваше мнение



Капча