Cake - Nugget
Fashion Nugget Album

i was wondering why i can't find this tab anywhere!
(probably cuz its pretty easy to play)
in any case here it is, i think its right
maybe shift up

be fun with it and mix it up if you wanna play it live!

into power chords

e|-------------------------------------------------|
b|--3-3-3-3-3-3-3/5--------------------------------|
g|--3-3-3-3-3-3-3/5--------------------------------|
d|--3-3-3-3-3-3-3/5--------------------------------|
a|-------------------------------------------------|
E|-------------------------------------------------|

fill
e|---------------------------------------------|
b|---5/7----3/5--3/5---------------------------|
g|---------------------------------------------|
d|---------------------------------------------|
a|---------------------------------------------|
E|---------------------------------------------|

main riff
e|-------------------------------------------------|
b|-------------------------------------------------|
g|-------------------------------------------------|
d|---7-7-7-----5-----------------------------------|
a|---------7-5---7-5-------------------------------|
E|-------------------------------------------------|

e|-------------------------------------------------|
b|-------------------------------------------------|
g|-------------------------------------------------|
d|-------------------------------------------------|
a|---7bvvh9----------------------------------------|
E|-------------------------------------------------|

and thats it! well jsut about, rest is just variation of this




Ваше мнение



Капча