#----------------------------------PLEASE NOTE---------------------------------#
#This file is the author's own work and represents their interpretation of the #
#song. You may only use this file for private study, scholarship, or research. #
#------------------------------------------------------------------------------#
* * *
Artist: Cake
Song: Mexico
Album: Prolonging the Magic
Bass Tab by Merrick Mosst
* * *
Pattern 1:
G|-----------------------------------5----------->
D|---------------------------0--2--5------------->
A|3--2--0----------------23---------------------->
E|---------3--1--------13------------------------>
Pattern 2:
G|5----------------------------------->
D|------5----------------23-----5----->
A|------------3--------35------------->
E|------------------------------------>
Pattern 3:
G|------------------------------>
D|------------------------------>
A|3--2--0-----5--0--5--0-------->
E|---------3--------------3----->
Final Pattern 4:
G|---------------------------------------------|
D|---------------------------------------------|
A|3--2--0-----5--0--5--0-------23-----3--------|
E|---------3--------------3---3----3-----------|

Song Sequence:
[BPM: 138-152]
[Intro: guitar plays similar intro bass line]
1
2
3
1 (with G transition after C)
1
2
3
1 (second half only, with G transition after C) 2x
1 (with F instead of final D)
2
4
End.




Ваше мнение



Капча