Artist : Cake
Song : Love you Madly
Tabbed by: James Pucyk ([email protected])

This is a pretty straight forward song but it's a really
groovy bassline, so check it out. You can very easily
improvise by jamming the mainline, which constitutes most
of the song, around the key of E.

Enjoy!
------------------------------------------------------------

Intro/Post Chorus/OUtro 1
G|-------|-------|-------|-------|
D|-------|-------|-------|-------|
A|-------|-------|-------|-------|
E|-0-0-r-|-0-0-r-|-0-0-r-|-0-0-r-|
e e h.

Main Bassline (Choruses and Verses)
G|---------------------|-------------------|
D|---------------------|-------------------|
A|-/7-5h7--5h7-5-------|-----------------/-|
E|---------------7-5-0-|-0-00--3-55-33-0---|
A- Slide up from
wherever

Interlude/Outro 2
G|------------------------------|
D|------------------------------|
A|------------------------------|
E|-0--0--0--0--0--0--0-3-5-7-10-|

Drum Intro (Bass Tacit)
Intro x 1
Verse x 4 (Insturments only)
Verse x 4
Chorus x 4
Post Chorusx 1
Verse x 4
Chorus x 4
Interlude x 2
Verse x 6 (Insturments only)
Verse x 4
Chorus x 4
Outro 1 x 6
Outro 2 x 8 ---> Fade

FIN




Ваше мнение



Капча