Artist: Cake
Song: Long Line of Cars
Album: Comfort Eagle
Tabed by: OneSickMushroom
Email: [email protected]
This is a really great song from cake of their new cd. It's not a single (or at least yet) but I probably like it better than short skirt/long jacket so i decided to tab it since I couldn't find any others for it online. It might be a bit hard for some people to play, they're a bunch of hammers/pull offs, but it's a really good part.

Beggining
To get through...
E-------------------------------------------------------------------------------
B-------------------------------------------------------------------------------
G-4-4-*-*-*-*-4-4-*-*-*-*-4-4-*-*-*-*-4-4-*-*-*-*-4-4-*-*-*-*-4-4-*-*-*-*-------
D-4-4-*-*-*-*-4-4-*-*-*-*-4-4-*-*-*-*-4-4-*-*-*-*-4-4-*-*-*-*-4-4-*-*-*-*-5--5--
A-2-2-*-*-*-*-2-2-*-*-*-*-2-2-*-*-*-*-2-2-*-*-*-*-2-2-*-*-*-*-2-2-*-*-*-*-5--5--
E-------------------------------------------------------------------------3--3--

E-------------------------------------------------
B-------------------------------------------------
G-4-4-*-*-*-*-4-4-*-*-*-*-4-4-*-*-*-*-4-4-*-*-*-*-
D-4-4-*-*-*-*-4-4-*-*-*-*-4-4-*-*-*-*-4-4-*-*-*-*-
A-2-2-*-*-*-*-2-2-*-*-*-*-2-2-*-*-*-*-2-2-*-*-*-*-
E-------------------------------------------------

E--------------------------------------------------------------------------
B--------------------------------------------------------------------------
G--------------------------------------------------------------------------
D-4-4----0-0--2-2----4-4----0-0--2-2----0-0----2-2--4-4----0-0----2-2--4-4-
A-1-1----2-2--4-4----1-1----2-2--4-4----2-2----4-4--5-5----2-2----4-4--5-5-
E--------------------------------------------------------------------------

E----------------------
B----------------------
G----------------------
D-4-4----0-0-----------
A-1-1----2-2--2-2-*--1-
E-------------3-3-0--2-
Long line of cars...




Ваше мнение



Капча