#----------------------------------PLEASE NOTE---------------------------------#
#This file is the author's own work and represents their interpretation of the #
#song. You may only use this file for private study, scholarship, or research. #
#------------------------------------------------------------------------------#
Cake - Long Line of Cars
Tabbed By: Angus Haynes ([email protected])
Not a very difficult song this one, essentially two different riffs
repeated through-out without many variations. Nice little song
however!Should be pretty much 100% correct, please e-mail me if you
see/hear any errors however!
Intro:
G|-----------------------------------------------------------------|
D|-------------0------------------------------------0h24-4---------|
A|-2-2-0h2-0h4---4-----2-2-0h2-0-------------0h24-4--------0h24-4--|
E|-------------------------------2-----002-2-----------------------|
G|--------------------|
D|--------------0-----|
A|--2-2-0h2-0h4---4-2-|
E|-2------------------|
Main Riff - Essentially the same riff as the intro:
G|-----------------|
D|-------------0---|
A|-2-2-0h2-0h4---4-|
E|-----------------|
Slight Variation to main riff:
G|-----------------------|
D|-------------0---2-2-2-|
A|-2-2-0h2-0h4---4-------|
E|-----------------------|
The other variation - As seen in the intro:
G|---------------------------------------------|
D|------------------------------0h24-4---------|
A|-2-2-0h2-0-------------0h24-4--------0h24-4--|
E|-----------2-----002-2-----------------------|




Ваше мнение



Капча