Author/Artist: Cake
Title: Let Me Go
Album: Prolonging the Moment
Transcribed by: Matt Foster
Email: [email protected]
You know the drill baby.
------------------------------------------------------------------------------
-2-2--2-2-2--3-3-3--3-3-3-3-2--2-2--2-2--5-5-5-5-5-5-5--2---------------------
-2-2--2-2-2--2-2-2--2-2-2-2-2--2-2--2-2--4-4-4-4-4-4-4--2---------------------
------------------------------------------------------------------------------
------------------------------------------------------------------------------
------------------------------------------------------------------------------
intro- guitar 1
-------------------------|----------------------------------------------------
-------------------------|----------------------------------------------------
-2-1-------------------2-|-2-1-------------------4----------------------------
-----4-2-0-----------2---|-----4-2-0-----------2------------------------------
-----------4-2-0---2-----|-----------4-2-0---2--------------------------------
-----------------4-------|-----------------4----------------------------------
guitar 2
------------------------------------------------------------------------------
-2--5-3---1--2--3--5--2-------------------------------------------------------
-2--4-2---1--1--2--4--2-------------------------------------------------------
------------------------------------------------------------------------------
------------------------------------------------------------------------------
------------------------------------------------------------------------------
verse- guitar 1
------------------------------------------------------------------------------
-2-2-2--2-2--2-2-2-2-----3--5-5-5-5-5-5-5-2-----------------------------------
-2-2-2--2-2--2-2-2-2-----2--4-4-4-4-4-4-4-2-----------------------------------
------------------------------------------------------------------------------
------------------------------------------------------------------------------
------------------------------------------------------------------------------
------------------------------------------------------------------------------
-/2p2p3-5/3/2p2p3-5/3-2p3/5--3-3-3-3-3---2p2p3-5/3/2p2p3-5/3-2p3/7-5-5-5-5-5--
-----------------------------2-2-2-2-2-----------------------------4-4-4-4-4--
------------------------------------------------------------------------------
------------------------------------------------------------------------------
------------------------------------------------------------------------------
guitar 2- verse
------------------------------------------------------------------------------
------------------------------------------------------------------------------
------------------------------------------------------------------------------
-9b/7--7-7-6-7-5--------------------------------------------------------------
-----------------7-7----------------------------------------------------------
------------------------------------------------------------------------------
solo- repeat many times +++ Ok that's the whole song, you piece it in+++========

Author/Artist: Cake
Title: Let Me Go
Transcribed by: BEN BURGER
Email: [email protected]

[email protected]-------------

-2--2--2--2--3-3-3---2-2-2--0-0-0-0-0-----------------------------------------

-2--2--2--2--2-2-2---2-2-2--1-1-1-1-1-----------------------------------------

-2--2--2--2--2-2-2---2-2-2--2-2-2-2-2-----------------------------------------

----------------------------2-2-2-2-2-----------------------------------------

------------------------------------------------------------------------------
first guitar part

-------------------------------|----------------------------------------------

-------------------------------|----------------------------------------------

-2-1---------------------------|-2-1------------------------------------------

-----4-2---4-2-0-------------0-|-----4-2---4-2-0------------------------------

---------4-------4-2-0---0-----|---------4-------4-2-0------------------------

-----------------------4---2---|-----------------------4----------------------
guitar riff

------------------------------------------------------------------------------

-2-3-2-3-2-----2-2-2--2-3-2-3-2-----------------------------------------------

-2-2-2-2-2-----3-3-3--2-2-2-2-2---1-1-1---------------------------------------

-2-2-2-2-2-----2-2-2--2-2-2-2-2---2-2-2---------------------------------------

----------------------------------2-2-2---------------------------------------

------------------------------------------------------------------------------
chorus




Ваше мнение



Капча