From [email protected] Wed Apr 2 08:50:45 1997
Date: Mon, 17 Mar 97 18:08:50 -0600
From: [email protected]
To: [email protected]
Subject: Cake
These are the two songs from Cake I found the chord progression for. I
Haven't learned the words yet, so you must excuse me for not listing the
Lyrics.
Frank Sinatra:
Intro:
------------------------------------------------------------------------
------------------------------
------------------------------------------------------------------------
------------------------------
------------------------------0-----------------------------------------
------------------------------
-------------2----------------------------------------------------------
-----------2------------1---
-----2-2-2---2-----2-2-2---2---2-2-2-3--------------3-2-0----------0-2--
--2------0------
------------------------------------------------3---3-3-3----------3---3
-------------2-3---------------
Actual song: Em, C, G, B7
Step down:
--------------------------------------------
---------------------------------------
------------------------------------------
---------------------------------------------
--------------3--------2------1---------------
--0-----2-3-----2-3----2-3----------------------------
I Will Survive:
The chord progression is :
Am Dm G C F B7 E or Em
Have fun...I hope it's right if you have any questions e-mail me at
[email protected]
From [email protected] Wed Apr 16 10:49:52 1997
Date: Tue, 08 Apr 1997 12:40:03 -0700
From: "Michael J. Accorso"
To: [email protected]
Subject: Cake "I wil survive"
Band: Cake
Song: I wil Survive
Transcriber: Mike Accorso [email protected]
This song is kind of easy, it only has five notes. The solos are simple
Licks using regular major scales.
He starts off almost scraping his strings with his pick:
Muted... 1st time 2nd time wide open
A x8 D x8 G x8 C x8 E x16
1| 5 5 | 3 3 | 0
2| 5 7 | 3 5 | 0
3| 6 7 | 4 5 | 1
4| 7 7 | 5 5 | 2
5| 7 5 | 5 3 | 2
6| 5 x | 3 | 0
That is it. This song is cake.
From [email protected] Sun May 4 10:41:18 1997
Date: Sun, 6 Apr 1997 00:43:47 +0200
From: Chusa Gallego / Felix Gallego
To: [email protected]
Subject: Cake: I will survive tab&lyrics
[The following text is in the "ISO-8859-1" character set]
[Your display is set for the "US-ASCII" character set]
[Some characters may be displayed incorrectly]
I Will Survive from Cake. Album Fashion nugget
Tabbed by: Matt Zelman
Complete Lyrics by Felix Gallego
Intro:
E--------------------------0----
B--------------------------0----
G-----7-------5-------4----1----
D-7---7X8-5---5X8-3---4X8--2X8--
A-7X8-5---5X8-3---3X8-2----2----
E-5-------3-------1--------0----
Verses/chorus:
Am Dm G C F B E
Am Dm
At first i was afraid i was petrified
G C
I was thinking i could never live without you by my side
F B
But then i spent so many nights just thinking how you did me wrong
E
I grew strong i learned how to get along
Etc.
(Gloria Gaynor version the chords are Am Dm G C Fmaj7 Bm7-5 E)
Lyrics:
----------------------
At first I was afraid.
I was petrified.
I kept thinking I could never live
Without you by my side.
But then I spent so many nights
Just thinking how you'd done me wrong.
I grew strong.
I learned how to get along.
And so you're back from outer space.
I just walked in to find you here
Without that look upon your face.
I should have changed my fucking lock.
I would have made you leave your key
If I'd have known for just one second
You'd be back to bother me.
Oh now go.
Walk out the door.
Just turn around now.
You're not welcome anymore.
Weren't you the one
Who tried to break me with desire?
Did you think I'd crumble?
Did you think I'd lay down and die?
Oh not I.
I will survive.
As long as I know how to love
I know I'll be alive.
I've got all my life to live.
I've got all my love to give.
I will survive.
I will survive.
It took all the strength I had
Just not to fall apart.
I'm trying hard to mend
The pieces of my broken heart.
And I spent oh so many nights
Just feeling sorry for myself.
I used to cry.
But now I hold my head up high.
And you'll see me with somebody new.
I'm not that stupid little person
Still in love with you.
And so you thought you'd just drop by,
And you expect me to be free.
But now I'm saving all my lovin'
For someone who's lovin' me.
Oh now go.
Walk out the door.
Just turn around now.
You're not welcome anymore.
Weren't you the one
Who tried to break me with desire?
Did you think I'd crumble?
Did you think I'd lay down and die?
Oh not I.
I will survive.
As long as I know how to love
I know I'll be alive.
I've got all my life to live.
I've got all my love to give.
I will survive.
I will survive.

[email protected]
From [email protected] Fri May 16 08:16:04 1997
Date: Tue, 13 May 1997 10:44:07 -0500
From: a Horton
To: [email protected]
Subject: Tab:I Will Survive; Cake
I Will Survive
As performed by Cake
From "Fashion Nugget"
Intro:
A5 d5 g5 c5 f5 b5 e e7
(Verse 1) (same as intro)
A5 d5
At first I was afraid, I was petrified
G5 c5
I kept thinking I could never live without you by my side
F5 b5
But then I spent so many nights just thinking how you'd done me wrong
E
I grew strong
E7
I learned how to get along
And so you're back from outer-space
I just walked in to find you here without that look upon your face
I should have changed my fuckin' lock
I would have made you leave your key
If I'd I known for just one second you'd be back to bother me
(Chorus)
Oh now go, walk out the door
Just turn around now, your not welcome anymore
Weren't you the one who tried to break me with desire
Did you think I'd crumble
Did you think I'd lay down and die
Oh not I, I will survive, yeah
As long as I know how to love I know I'll be alive
I've got all my life to live
I've got all my love to give
I will survive
I will survive, yeah yeah! oh,
(Verse 2)
It took all the strength I had just not to fall apart
I'm trying hard to mend the pieces of my broken heart
And I spent oh so many nights just feeling sorry for myself
I used to cry,
Now I hold my head up high
And you see me with somebody new
I'm not that stupid little person still in love with you
And so you thought you'd just drop by and you expect me to be free
But now I'm saving all my lovin' for someone who's lovin' me
(Chorus)

Chord formations:
A5 d5 g5 c5 f5 b5 e e7
E---x-----x-----x-----x-----x-----x-----0-----0------
B---x-----x-----x-----x-----x-----x-----0-----0------
G---x-----7-----x-----5-----x-----4-----1-----1------
D---7-----7-----5-----5-----3-----4-----2-----0------
A---7-----5-----5-----3-----3-----2-----2-----2------
E---5-----x-----3-----x-----1-----x-----0-----0------
Enjoy!
John Horton ([email protected])


Ваше мнение



Капча