Riff 1
G|-----------------------------|
D|-------7----5--5----5h7-5----|
A|----------7------7--------7--|
E|-5--5------------------------|
G|-------7----5--5----5h7-5----|
D|----------7------7--------7--|
A|-5--5------------------------|
E|-----------------------------|
G|-----------------------------|
D|-------5----3--3----3h5-3----|
A|----------5------5--------5--|
E|-3--3------------------------|
G|-------5----3--3----3h5-3----|
D|----------5------5--------5--|
A|-3--3------------------------|
E|-----------------------------|
G|-----------------------------|
D|-------3----1--1----1h3-1----|
A|----------3------3--------3--|
E|-1--1------------------------|
G|-------4-------4--4--4-------|
D|----4-----4-4-----------4----|
A|-2---------------------------|
E|-----------------------------|
G|-----------------------------|
D|-------2----2--2--2--2-------|
A|----------2-------------2----|
E|-0--0------------------------|
G|-----------------------------|
D|-2--2--4--4--5--5--6--6------|
A|-----------------------------|
E|-----------------------------|
Riff 2
G|-----------------------------|
D|-------7----5--5----5h7-5----|
A|----------7------7--------7--|
E|-5--5------------------------|
G|-------7----5----5-7--7-5----|
D|---------7-----7----------7--|
A|-5--5------------------------|
E|-----------------------------|
G|-----------------------------|
D|-------5----3--3----3h5-3----|
A|----------5------5--------5--|
E|-3--3------------------------|
G|-------5----3----3-5--5-3----|
D|---------5-----5----------5--|
A|-3--3------------------------|
E|-----------------------------|
G|-----------------------------|
D|-------3----1--1----1h3-1----|
A|----------3------3--------3--|
E|-1--1------------------------|
G|-------4-------4--4--4-------|
D|----4-----4-4-----------4----|
A|-2---------------------------|
E|-----------------------------|
G|-----------------------------|
D|-------2----2--2--2--2-------|
A|----------2-------------2----|
E|-0--0------------------------|
G|-----------------------------|
D|-2--2--4--4--5--5--6--6------|
A|-----------------------------|
E|-----------------------------|
Riff 3
G|-----------------------------|
D|-------7----5--5----5h7-5----|
A|----------7------7--------7--|
E|-5--5------------------------|
G|-------7----5--5----5h7-5----|
D|----------7------7--------7--|
A|-5--5------------------------|
E|-----------------------------|
G|-----------------------------|
D|-------5----3--3----3h5-3----|
A|----------5------5--------5--|
E|-3--3------------------------|
G|-------5----3----3-5--5-3----|
D|---------5-----5----------5--|
A|-3--3------------------------|
E|-----------------------------|
G|-----------------------------|
D|-------3----1--1----1h3-1----|
A|----------3------3--------3--|
E|-1--1------------------------|
G|-------4-------4--4--4-------|
D|----4-----4-4-----------4----|
A|-2---------------------------|
E|-----------------------------|
G|-----------------------------|
D|-------2----2--2--2--2-------|
A|----------2-------------2----|
E|-0--0------------------------|
G|-----------------------------|
D|-2--2--4--4--5--5--6--6------|
A|-----------------------------|
E|-----------------------------|
Riff 4
G|-----------------------------|
D|-------7----5--5----5h7-5----|
A|----------7------7--------7--|
E|-5--5------------------------|
G|-------7----5----5-7--7-5----|
D|---------7-----7----------7--|
A|-5--5------------------------|
E|-----------------------------|
G|-----------------------------|
D|-------5----3--3----3h5-3----|
A|----------5------5--------5--|
E|-3--3------------------------|
G|---5----3--------------------|
D|------5------3---------------|
A|-3---------5----5--3---------|
E|----------------------5--3---|
G|-----------------------------|
D|-------3----1--1----1h3-1----|
A|----------3------3--------3--|
E|-1--1------------------------|
G|-------4-------4--4--4-------|
D|----4-----4-4-----------4----|
A|-2---------------------------|
E|-----------------------------|
G|-----------------------------|
D|-------2----2--2--2--2-------|
A|----------2-------------2----|
E|-0--0------------------------|
G|-----------------------------|
D|-2--2--4--4--5--5--6--6------|
A|-----------------------------|
E|-----------------------------|
Riff 5 :
G|-----------------------------|
D|-------7----5--5----5h7-5----|
A|----------7------7--------7--|
E|-5--5------------------------|
G|-------7----5----5-7--7-5----|
D|---------7-----7----------7--|
A|-5--5------------------------|
E|-----------------------------|
G|-----------------------------|
D|-------5----3--3----3h5-3----|
A|----------5------5--------5--|
E|-3--3------------------------|
G|---5----3--------------------|
D|------5------3---------------|
A|-3---------5----5--3---------|
E|----------------------5--3---|
G|-----------------------------|
D|-------3----1--1----1h3-1----|
A|----------3------3--------3--|
E|-1--1------------------------|
G|-------4-------4--4--4-------|
D|----4-----4-4-----------4----|
A|-2---------------------------|
E|-----------------------------|
G|-----------------------------|
D|-----------------------------|
A|-----------------------------|
E|-0------5----5----5----------|
Structure
Riff 1 : 5x
Riff 2 : 1x
Riff 1 : 2x
Riff 3 : 1x
Riff 1 : 2x
Riff 4 : 1x
Riff 1 : 1x
Riff 5 : 1x




Ваше мнение



Капча