From: [email protected]
Date: 31 Oct 1996 06:39:01 GMT
---===Going The Distance===---
By Cake

The verse goes a little like this:
E:--------------------------------------------|
B:----3------3------3--2--1------3-----2------|
G:o---4------4-h-5--4--2--2------4-h-5-2----o(repeat)
D:o---5------5------5--x--3------5-----x----o-|
A:--------------------------------------------|
E:--------------------------------------------|
Then there's some semi-chromatic lick I'm not sure how it goes... just
Listen close... you'll be able to figure it out.
Then there's the part that goes:
"He's going the distance"
E:-----------------------------|-------------------------------|
B:-----------------------------|-------------------------------|
G:o----------------------------|------------------------------o|
D:o----------------------------|------------------------------o|
A:-----------------------------|---------------------/7-6-5----|
E:--0-0---0-0--0-0--0/4-5-6-7--|-0-0---0-0---0-0---0--------7--|
E:------------------------------------------|
B:------------------------------------------|
G:o----------------------------------------o|
D:o----------------------------------------o|
A:----------/7------------------------------|
E:---5-4-0-------(5)r4---4-----5-6-7--------|
^
|--------(Pre-bend to 5 on the 4th fret and release)
(I'm not exactly sure about this note)
That's about all there really is... There are a few variations here and
There but nothing really major... no solo... so it's a pretty easy song
To play.




Ваше мнение



Капча