From [email protected] Wed Apr 9 12:43:38 1997
Date: Fri, 21 Mar 97 16:35:09 EST
From: Ted Schneider III
To: [email protected]
Cc: [email protected]
Subject: Tab:'friend is a 4 letter word'by'Cake'
FRIEND.TAB
This TAB transcription was created using TAB MASTER version 1.0
If you enjoy using this program, please consider telling the author
About it: Ofir Zwebner, e-mail: [email protected]
Snail-mail: Ehoud 10, Tel Aviv, 69936, Israel
This program is freeware, but it took me some work to make it, so
Your financial contribution is welcome.
--------------------------------------------------------------------
"Friend is a four letter word"
By: Cake
Off "Fashion Nugget"
Part 1 Intro and Verse
Play Clean and Slow
A C F
E:---------------0-----------------------0-----------------------1-----------|
B:------------1-----1-----------------1-----1-----------------1-----1--------|
G:---------2-----------2-----------0-----------0-----------2-----------2-----|
D:------2-----------------2-----2-----------------2-----3-----------------3--|
A:---0-----------------------3-----------------------------------------------|
E:---------------------------------------------------1-----------------------|
D7
E:------------2--------------------------------------------------------------|
B:---------1-----1-----------------------------------------------------------|
G:------2-----------2--------------------------------------------------------|
D:---0-----------------0-----------------------------------------------------|
A:0--------------------------------------------------------------------------|
E:---------------------------------------------------------------------------|
Part 2
This part comes directly after the verse
Play 4 times a little distorted
E:--5--5-5--x-x-----x------x-x--3-x--1--1-1-x-x-1-1--1--1--1-----------------|
B:--5--5-5--x-x--7--x--5-5-x-x--3-x--1--1-1-x-x-1-1--1--1--1-----------------|
G:--6--6-6--x-x--7--x--5-5-x-x--4-x--2--2-2-x-x-2-2--2--2--2-----------------|
D:--7--7-7--x-x--7--x--5-5-x-x--5-x--3--3-3-x-x-3-3--3--3--3-----------------|
A:--7--7-7--x-x--5--0--3-3-x-x--5-x--3--3-3-x-x-3-3--3--3--3-----------------|
E:--5--5-5--x-x------------x-x--3-0--1--1-1-x-x-0-0--0--0--0-----------------|
D u d d u d u d u d u d u d u d d u d ud ud ud u




Ваше мнение



Капча